Oops, an error
Loading. Please wait.

F For Your tab

28 views 6 this week
no commentswrite comment
1 2 3 4 5
3 more votes to show rating
add to favorites
×
Save as Personal and add changes to this tab that will be seen only by you. Learn more ›
×
You can save this tab as Personal to edit and correct it or add notes. All changes will be seen only by you. Learn more »
launch autoscroll
font size
0
reset
how to read this tab
guitar tuner
edit
Autoscroll
slow
fast
+/-
esc
set tempo
stop
Author
Difficulty
[Intro]
Guitar 1
e|-------------------------------------------|
B|-------------------------------------------|
G|-2h3-2-------------------------------------|
D|-------2/3-5-------------------------------|   x4
A|-------------5-333-5-----------------------|
E|---------------------=3--------------------|

I've been infected with wrestless whispers and cheats
That manifested in words and the lies that you speak

Guitar 2
e|--------------------------------------------------------|
B|---5-5-5-5-5-5--6---------------------------------------|
G|---5-5-5-5-5-5--5---------------------------------------|
D|---5-5-5-5-5-5--5---------------------------------------|
A|--------------------------------------------------------|
E|--------------------------------------------------------|

I've been infected with wrestless whispers and cheats
That manifested in words and the lies that you speak
I've been infected with wrestless whispers and cheats
That manifested in words and the lies that you speak
Because I played the fool for you (X6)

[Verse]
e|-------------------------------------------|
B|-------------------------------------------|
G|-2h3-2-------------------------------------|
D|-------2/3-5-------------------------------|   x4
A|-------------5-3-3-3-5---------------------|
E|----------------------3--------------------|

Boy your love, is so beautiful and I play the fool for you
Boy your love, is os beautiful and I play the fool for you baby
      
e|--------------------------------------------------|
B|---5-5-5--6---------------------------------------|
G|---5-5-5--5---------------------------------------|
D|---5-5-5--5---------------------------------------|
A|--------------------------------------------------|
E|--------------------------------------------------|

It makes me feel so good
When you hold me tight
Always want him back
He make everything alright 
Boy your love
Is so beautiful
I play, I play, I play the fool for you

[Chorus]
Guitar 2
e|--------------------------------------------------------|
B|---5-5-5-5-5-5--6---------------------------------------|
G|---5-5-5-5-5-5--5---------------------------------------|
D|---5-5-5-5-5-5--5---------------------------------------|
A|--------------------------------------------------------|
E|--------------------------------------------------------|
Because I played the fool for you (X6)

[Verse]
e|-------------------------------------------|
B|-------------------------------------------|
G|-2h3-2-------------------------------------|
D|-------2/3-5-------------------------------|   x4
A|-------------5-3-3-3-5---------------------|
E|-----------------------3-------------------|

Boy your love, got me in a daze and I'll do anything you say
Boy your love, got me in a daze and I'll do anything you say baby

e|--------------------------------------------------|
B|---5-5-5--6---------------------------------------|
G|---5-5-5--5---------------------------------------|
D|---5-5-5--5---------------------------------------|
A|--------------------------------------------------|
E|--------------------------------------------------|

Give me what I need
Whenever you're around
Always be my kind
Can nobody take your crown
Boy your love
Is so beautiful
I play, I play, I play the fool for you

[Chorus]
e|--------------------------------------------------------|
B|---5-5-5-5-5-5--6---------------------------------------|
G|---5-5-5-5-5-5--5---------------------------------------|
D|---5-5-5-5-5-5--5---------------------------------------|
A|--------------------------------------------------------|
E|--------------------------------------------------------|

Because I played the fool for you (X6)

[Outro]
e|--------------------------------------------------|
B|---5-5-5--6---------------------------------------|
G|---5-5-5--5---------------------------------------|
D|---5-5-5--5---------------------------------------|
A|--------------------------------------------------|
E|--------------------------------------------------|

It makes me feel good (x4)

***********************************************************
h: hammer on
/: slide on

***********************************************************

            
            
Suggest correction
Creating personal tab
Creating personal tab
You can edit any tab online and save it as your Personal.

You can edit, replace or remove any tab part or add personal notes – all changes will be seen only by you.

Personal tabs can be accessed anytime from any device, even offline.
Learn more »
Give kudos to tab author, rate the tab!
1 2 3 4 5
comments
print report bad tab
guest
You may want to rate the tab now too:
select rating
Wanna post a correction for this tab? Suggest correction