Oops, an error
Loading. Please wait.

Feel Bass Tab

version 1
version 1

Whole song

3,016 views 3 this week
no commentswrite comment
1 2 3 4 5
please rate
add to favorites
launch autoscroll
font size
0
reset
guitar tuner
Autoscroll
slow
fast
+/-
esc
set tempo
stop
Help us to improve Ultimate-Guitar.com Take our survey!
×
Author
Difficulty
intermediate
Standard Tuning

Intro

|-------------------------------------------------------|
|----8-----8-----8-----8-----11-----11-----11-----6-----|
|-6-----6-----6-----6-----9------9------9------4--------|
|------6-----6-----6-----6------9------9------9-----4---|


|--------------------------------------------------------|
|----8-----8-----8-----8-----11-----11-----11-----10-----|
|-6-----6-----6-----6-----9------9------9------8---------|
|------6-----6-----6-----6------9------9------9------8---|


Verse

|-------------------------------------------------------|
|----8-----8-----8-----8-----11-----11-----11-----6-----|  
|-6-----6-----6-----6-----9------9------9------4--------|    (x3)
|------6-----6-----6-----6------9------9------9-----4---|


|--------------------------------------------------------|
|----8-----8-----8-----8-----11-----11-----11-----10-----|
|-6-----6-----6-----6-----9------9------9------8---------|
|------6-----6-----6-----6------9------9------9------8---|


Pre-chorus

|----------------4~---------------------------------|
|-----4------4----------16-18-------------11--------|
|--2-----2------------16---------9-----9------4~----|
|-2----------------------------------9--------------|


Chorus

|-----------------------------6-----6---------------|
|----4-----4-----4-----4-3-4-----4--------6-----6---|
|-2-----2-----2-----2-----------4------4-----4------|   (x2)
|------2-----2-----2------------------4-----4-----4-|


|------------------------------------------------------|
|----4-----4-----4-----4-----6-----6-----6-----6-------|
|-2-----2-----2-----2-----4-----4-----4-----4-----6~---|
|------2-----2-----2-----2-----4-----4-----4-----------|


Then play the verse again, but this time start like this:

|-------------------------------|
|----11-----11-----11-----6-----|  
|-9------9------9------4--------|    
|-------9------9------9-----4---|


|-------------------------------------------------------|
|----8-----8-----8-----8-----11-----11-----11-----6-----|  
|-6-----6-----6-----6-----9------9------9------4--------|    (x3)   
|------6-----6-----6-----6------9------9------9-----4---| 


Chorus


|-----------------------------6-----6---------------|
|----4-----4-----4-----4-3-4-----4--------6-----6---|
|-2-----2-----2-----2-----------4------4-----4------|   (x2)
|------2-----2-----2------------------4-----4-----4-|


|---------------------------------------------------|
|----4-----4-----4-----4-----6-----6-----6-----6----|
|-2-----2-----2-----2-----4-----4-----4-----4-------|
|------2-----2-----2-----2-----4-----4-----4-----4--|


After the second chorus play:

Verse x4
Pre-chorus x2


Chorus

|-----------------------------6-----6-----8-----8-----|
|----4-----4-----4-----4-3-4-----4-----6-----6--------|
|-2-----2-----2-----2-----------4-----4-----6-----6---|   (x3)
|------2-----2-----2----------------------------------|


|------------4----------------6-----6-----8-----8-----|
|----4-----4-----4-----4-3-4-----4-----6-----6--------|
|-2-----2-----2-----2-----------4-----4-----6-----6---|
|------2-----------2----------------------------------|


|-----------------------------6-----6-----8-----8-----|
|----4-----4-----4-----4-3-4-----4-----6-----6--------|
|-2-----2-----2-----2-----------4-----4-----6-----6---|   Play this until the end
|------2-----2-----2----------------------------------|



Suggest correction
Give kudos to tab author, rate the tab!
1 2 3 4 5
comments
print report bad tab
guest
You may want to rate the tab now too:
select rating
Wanna post a correction for this tab? Suggest correction