Oops, an error
Loading. Please wait.

Flaws Tab

version 1
version 1

Whole song

12,919 views 1 this week
1 commentread comment
1 2 3 4 5
accurate
x 4
add to favorites
launch autoscroll
font size
0
reset
how to read this tab
guitar tuner
Autoscroll
slow
fast
+/-
esc
set tempo
stop
Help us to improve Ultimate-Guitar.com Take our survey!
×
Difficulty
Capo
intermediate
1st fret
Capo 1st fret
listen to the song for speed of play and timings

VERSE:
e------------      e------------     e--------------|
B---8-------8      B---8-------8     B---0-------0--|
G-------0----  X2  G-------0---- X1  G---0---0------| X2
D---------8--      D---------8--     D-0-------0----|
A-8----------      A-6----------     A--------------|
E-----8------      E-----6------     E-----4--------|


CHORUS:
e------------------------------------------|
B----0---0---0---0---0---0---0---0---0---0-|
G--0---0---0---0---0---0---0---0---0---0---|
D---0---0---0---0---0---0---0---0---0---0--|
A-----------------4---4--------------------|
E-4---4---4---4-----------4---4---4---4----|
comments
print report bad tab
1 comment total.
0 reply
adoringfan 10 wrote on August 27 2013, 08:43 pm

B---0-------0--|
G---0---0------| This is actually played three times in the song
D-0-------0----|
A--------------|
E-----4--------| Also there is another part after the main chorus that you missed but other than that great tab

I want to post or [tab]
guest
You may want to rate the tab now too:
select rating
Please do not post tabs as comments. Select "correction" instead!