Oops, an error
Loading. Please wait.

Flaws Tab

version 3
version 3

Intro

Whole song

1,532 views 1 this week
no commentswrite comment
1 2 3 4 5
please rate
add to favorites
launch autoscroll
font size
0
reset
how to read this tab
guitar tuner
Tab Pro tools
  • play this tab
  • loop segment
  • change instrument
  • show fretboard
  • metronome
Autoscroll
slow
fast
+/-
esc
set tempo
stop
Standard Tuning, Capo first fret

verse:

e|--------------|---------------|---------------|--------------|------------|
b|----7-------7-|----7--------7-|----0-------7--|----0---0---0-|---0---0---0|
g|--------0-----|---------0-----|--------0------|----0-----0---|---0-----0--|
d|----7-----7---|----7------7---|----7-----7----|--0-----------|-0----------|
a|--7-----------|--7------------|--5------------|--------------|------------|
e|------7-------|-------7-------|------5--------|------3-------|-----3------|

e|---------------|
b|---0----0---0--|
g|---0------0----|
d|-0-------------|
a|---------------|
e|-----3---------|

chorus:

e|----------|-----------|-----------|-----------|----------|-----------|
b|-------0--|--------0--|--------0--|--------0--|--------0-|---------0-|
g|---0------|----0------|----0------|----0------|----0-----|-----0-----|
d|-----4----|------4----|------4----|------4----|------4---|-------4---|
a|----------|-----------|-----------|-----------|--3-------|--3--------|
e|-3--------|-3---------|-3---------|-3---------|----------|-----------|

e|----------|-----------|-----------|-----------| x2
b|-------0--|--------0--|--------0--|--------0--|
g|---0------|----0------|----0------|----0------|
d|-----4----|------4----|------4----|------4----|
a|----------|-----------|-----------|-----------|
e|-3--------|--3--------|--3--------|--3--------|

e|----------|-----------|-----------|-----------|----------|-----------|
b|--------0-|---------0-|--------0--|--------0--|--------0-|---------0-|
g|----0-----|-----0-----|----0------|----0------|----0-----|-----0-----|
d|------4---|-------4---|------4----|------4----|------4---|-------4---|
a|----------|-----------|-----------|--2--------|--3-------|--3--------|
e|--0-------|--0--------|--0--------|-----------|----------|-----------|

this part played 7 times: 
e|----------|
b|--------0-|
g|----0-----|
d|------0---|
a|----------|
e|--3-------|

then to verse with:
e|----------|  
b|----------|
g|----0---0-|
d|----------|
a|----------|
e|--3---2---|

start first bar of next verse with:
e|--------------|
b|----7-------7-|
g|--------0-----|
d|----7-----7---|
a|--------------|
e|--0---7-------|

same for next verse and chorus

then on end of second chorus go into verse with:

e|--------------| x3
b|----0-------0-|
g|--------0-----|
d|----0-----0---|
a|--------------|
e|--3----3------|

e|---------|--------|
b|-------0-|--------|
g|---0-----|---0---0|
d|---------|--------|
a|-----0---|--------|
e|-3-------|-3---2--|

then go back to verse and chorus again and end on:

e|--x----------|  let chord ring
b|--0----------|
g|--0----------|
d|--0----------|
a|--2----------|
e|--3----------|

lyrics:

First Verse:

Taking the second plan
Beg him to understand
Life of a selfless man

Chorus:

Out of all the flaws I've stumbled on,
It's the hardest one to focus on,
It's the hardest one to focus on

Second Verse:

Why are you calling her?
Isn't one enough?
Giving up all she's got

[Chorus again]

Outro
comments
We did not receive enough feedback on this tab! Please rate:
print report bad tab
1 2 3 4 5
I want to post or [tab]
guest
You may want to rate the tab now too:
select rating
Please do not post tabs as comments. Select "correction" instead!