Oops, an error
Loading. Please wait.

Ghost Tab

version 1
version 1

Whole song

4,938 views 12 this week
no commentswrite comment
1 2 3 4 5
accurate
x 3
add to favorites
launch autoscroll
font size
0
reset
how to read this tab
guitar tuner
Autoscroll
slow
fast
+/-
esc
set tempo
stop
Help us to improve Ultimate-Guitar.com Take our survey!
×
Author
Difficulty
novice
BOMBAY BICYCLE CLUB - GHOST

Tabbed by RoryOreo
rory@mcgowanclan.co.uk

This is my first tab so it probably isn't 100% correct but it's how I play it. Great 
song and great guitar parts. ENJOY!!


INTRO AND VERSE:


Guitar 1

(0:01)
|----------------------------------|
|----------------------------------|
|----------------------------------|
|---/9---9-7---7-------------------|        x5
|----------------9---9----7--------|
|----------------------9-----------|
(0:37)
|----------------------------------|
|-------------------------7--------|
|----------------6---6-9-----------|
|---/9---9-7---7-------------------|        x1
|----------------------------------|
|----------------------------------|



Guitar 2

(0:01)
|-------------------------|
|-------------------------|
|---6--6-6--6--6-6--------|
|----77-7-77-77-7-77------|           x12
|-------------------------|
|-------------------------|




CHORUS:


Guitar 1

(0:41)
|-------------------------------|
|-------------------------------|
|-------------6-------------6---|
|---9-----7-9-----9-----7-9-----|        x2
|-------9-------------9---------|
|-------------------------------|
(0:48)
|-------------------------|
|-------------------------|
|----9--9--9-9--9--76-----|
|-----77-77-7-77-77-------|
|-------------------------|
|-------------------------|
(0:52)
|-------------------------------|
|-------------------------------|
|-------------6-------------6---|
|---9-----7-9-----9-----7-9-----|
|-------9-------------9---------|
|-------------------------------|
(0:55)
|-------------------------|
|-------------------------|
|---9--9--9-9--9--76------|
|----77-77-7-77-77--------|
|-------------------------|
|-------------------------|
(0:59)
|-------------------------------|
|-------------------------------|
|-------------6-------------6---|
|---9-----7-9-----9-----7-9-----|
|-------9-------------9---------|
|-------------------------------|
(1:03)
|---------------------------|
|---------------------------|
|---9--9--9-11--11--11------|
|----77-77-7--77--77--7-----|        11s, not 1s
|---------------------------|
|---------------------------|
(1:06)
|----------------------------------------------|
|----------------------------------------------|
|----------------------------------------------|
|---9---9-7---7-9---9-7---7-9---9-7---7-9------|
|----------------------------------------------|
|----------------------------------------------|

Pause until 1:21



Guitar 2

Pause until 0:48

(0:48)
|--------------------------|
|--------------------------|
|---6666666677777777-------|
|---7777777777777777-------|
|---9999999999999999-------|
|--------------------------|
(0:52)
|-------------------------------|
|-------------------------------|
|-------------6-------------6---|
|---9-----7-9-----9-----7-9-----|
|-------9-------------9---------|
|-------------------------------|
(0:55)
|--------------------------|
|--------------------------|
|---6666666677777777-------|
|---7777777777777777-------|
|---9999999999999999-------|
|--------------------------|
(0:59)
|-------------------------------|
|-------------------------------|
|-------------6-------------6---|
|---9-----7-9-----9-----7-9-----|
|-------9-------------9---------|
|-------------------------------|
(1:03)
|--------------------------|
|--------------------------|
|---66666666999999996------|
|---77777777999999997------|
|---99999999--------9------|
|--------------------------|
(1:06)
|----------------------------------------------|
|----------------------------------------------|
|---9---9-6---6-9---7-6---6-9---9-6---6-9------|
|---9---9-7---7-9---9-7---7-9---9-7---7-9------|
|----------------------------------------------|
|----------------------------------------------|

Pause until 1:21




SECOND VERSE:


Guitar 1

(1:21)
|----------------------------------|
|----------------------------------|
|----------------------------------|
|---/9---9-7---7-------------------|        x3
|----------------9---9----7--------|
|----------------------9-----------|
(1:42)
|----------------------------------|
|-------------------------7--------|
|----------------6---6-9-----------|
|---/9---9-7---7-------------------|        x1
|----------------------------------|
|----------------------------------|



Guitar 2

(1:21)
|-------------------------|
|-------------------------|
|---6--6-6--6--6-6--------|
|----77-7-77-77-7-77------|           x7
|-------------------------|
|-------------------------|

Pause until 1:53




SECOND CHORUS:


Guitar 1

(1:46)
|-------------------------------|
|-------------------------------|
|-------------6-------------6---|
|---9-----7-9-----9-----7-9-----|        x2
|-------9-------------9---------|
|-------------------------------|
(1:53)
|-------------------------|
|-------------------------|
|----9--9--9-9--9--76-----|
|-----77-77-7-77-77-------|
|-------------------------|
|-------------------------|
(1:57)
|-------------------------------|
|-------------------------------|
|-------------6-------------6---|
|---9-----7-9-----9-----7-9-----|
|-------9-------------9---------|
|-------------------------------|
(2:00)
|-------------------------|
|-------------------------|
|---9--9--9-9--9--76------|
|----77-77-7-77-77--------|
|-------------------------|
|-------------------------|
(2:04)
|-------------------------------|
|-------------------------------|
|-------------6-------------6---|
|---9-----7-9-----9-----7-9-----|         x2
|-------9-------------9---------|
|-------------------------------|
(2:12)
|---------------------------|
|---------------------------|
|---9--9--9-11--11--11------|
|----77-77-7--77--77--77----|        11s, not 1s
|---------------------------|
|---------------------------|

Pause until 2:19



Guitar 2

(1:53)
|--------------------------|
|--------------------------|
|---6666666677777777-------|
|---7777777777777777-------|
|---9999999999999999-------|
|--------------------------|
(1:57)
|-------------------------------|
|-------------------------------|
|-------------6-------------6---|
|---9-----7-9-----9-----7-9-----|
|-------9-------------9---------|
|-------------------------------|
(2:00)
|--------------------------|
|--------------------------|
|---6666666677777777-------|
|---7777777777777777-------|
|---9999999999999999-------|
|--------------------------|
(2:04)
|-------------------------------|
|-------------------------------|
|-------------6-------------6---|
|---9-----7-9-----9-----7-9-----|        x2
|-------9-------------9---------|
|-------------------------------|
(2:12)
|--------------------------|
|--------------------------|
|---66666666999999996------|
|---77777777999999997------|
|---99999999--------9------|
|--------------------------|

Pause until 2:19




BRIDGE:


Guitar 1

(2:19)
|--------------------------------------|
|---10101010--------12121212-----------|
|-----------11111111--------9999-------|
|--------------------------------------|        x10
|--------------------------------------|
|--------------------------------------|

|-------------------------------------------|
|---10101010--------12121212/1414141414-----|
|-----------11111111------------------------|
|-------------------------------------------|
|-------------------------------------------|
|-------------------------------------------|



Guitar 2

(2:19) - If you're counting 1,2,3,4 at 130 bpm, play the 1st note between the 2 and the 
3 and the 2nd note on the 4.
|-----------------------------------------------------|
|-----------------------------------------------------|
|---69-x4----67-x2----69/6-x4----67-x2----69/6-x4-----|
|-----------------------------------------------------|
|-----------------------------------------------------|
|-----------------------------------------------------|

Then, overlapping the backing riff (above), is this.

|--------------------------|
|--------------------------|
|---6666666699999999-------|
|---7777777799999999-------|
|---99999999---------------|
|--------------------------|




LAST CHORUS


Guitar 1

(2:58) - Listen for timing.
|-----------------|
|---------14------|
|---111111--------|
|-----------------|        x16
|-----------------|
|-----------------|



Guitar 2

(2:58)
|----------------|
|---12--1012-----|
|---13--1113-----|
|----------------|        x4
|----------------|
|----------------|
(3:05)
|----------------|
|---12--1012-----|
|---16--1113-----|
|----------------|        x4
|----------------|
|----------------|
(3:13)
|----------------|
|---12--1012-----|
|---13--1113-----|
|----------------|        x4
|----------------|
|----------------|
(3:20)
|----------------|
|---12--1012-----|
|---16--1113-----|
|----------------|        x4
|----------------|
|----------------|




OUTRO


Guitar 1

(3:36) - You don't need to include this but I've tabbed it anyway.
|-----------|
|-----------|
|---11b-----|        You'll hear it when it comes in.
|-----------|
|-----------|
|-----------|

ENJOY!!
Suggest correction
What's this?
You can suggest a correction to this tab. Community and Mods will review your correction and vote to approve or reject it.
comments
We did not receive enough feedback on this tab! Please rate:
print report bad tab
1 2 3 4 5
guest
You may want to rate the tab now too:
select rating
Please do not post tabs as comments. Select "correction" instead!