Oops, an error
Loading. Please wait.

Ivy And Gold Tab

version 1
version 1

Whole song

Interactive

6,663 views 1 this week
2 commentsread comments
1 2 3 4 5
please rate
add to favorites
launch autoscroll
font size
0
reset
how to read this tab
guitar tuner
Autoscroll
slow
fast
+/-
esc
set tempo
stop
Help us to improve Ultimate-Guitar.com Take our survey!
×
Author
e|-4-6-4-----------------------------4-6-4--------------------------|
B|--------6-4------4-6-4-------------------6-4------4---------------|
G|------------6------------6-3---1---------------6------------------|
D|------------------------------------------------------------------|
A|------------------------------------------------------------------|
E|------------------------------------------------------------------|

couldnt work out the hammer on/off bit after this, maybe someone else could give it a go?
Suggest correction
Give kudos to tab author, rate the tab!
1 2 3 4 5
comments
print report bad tab
2 comments total.
0 reply
tomtomtom21 10 wrote on June 22 2010, 05:49 am

I think the tapping bit is:
e|------------------------------------------------------------------|
B|------4-6-4-------------------------------------------------------|
G|------------6-3-6-------------------------------------------------|
D|------------------------------------------------------------------|
A|------------------------------------------------------------------|
E|------------------------------------------------------------------|

0 reply
pippaflippa17 51 wrote on October 27 2010, 08:19 am

This is the tab that comes next:
-4-6-4-----------------------------------------------------|
---------6-4---4-6-4--------------6----7-6-4-(6)-2----|
--------------6--------6-3-1----6-------------------------|
-------------------------------------------------------------|
-------------------------------------------------------------|
-------------------------------------------------------------|

guest
You may want to rate the tab now too:
select rating
Please do not post tabs as comments. Select "correction" instead!