Oops, an error
Loading. Please wait.

Ivy And Gold Tab

version 2
version 2

Whole song

Interactive

3,997 views 1 this week
1 commentread comment
1 2 3 4 5
2 more votes to show rating
add to favorites
launch autoscroll
font size
0
reset
how to read this tab
guitar tuner
Autoscroll
slow
fast
+/-
esc
set tempo
stop
Help us to improve Ultimate-Guitar.com Take our survey!
×
Difficulty
novice
I have no e string.
- SDJS

----------------------------------------------------|
-9-11-9-------------------------9-11-9----------6---|
-------10-8--6--8-10-8-6--------------10-8-6-8----8-|
-------------------------8-6------------------------|
----------------------------------------------------|
----------------------------------------------------|

----------------------------------6----7-6---------|
-9-11-9-------------------------6----6-----8-6-----|
-------10-8--6--8-10-8-6---------------------------|
-------------------------8-6-----------------------|
---------------------------------------------------|
---------------------------------------------------|
Suggest correction
Give kudos to tab author, rate the tab!
1 2 3 4 5
comments
print report bad tab
1 comment total.
0 reply
rachelmacc 10 Jul 12, 2010 01:59 PM

instaed of
---6----7-6---------|
-6----6-----8-6-----|
--------------------|
--------------------|
--------------------|
--------------------|
the last bit should go
---5----6-5---------|
-6----6-----8-6-----|
--------------------|
--------------------|
--------------------|
--------------------|

guest
You may want to rate the tab now too:
select rating
Wanna post a correction for this tab? Suggest correction