Oops, an error
Loading. Please wait.

Jewel Tab

version 1
version 1

Whole song

Interactive

9,093 views 12 this week
3 commentsread comments
1 2 3 4 5
excellent!
x 7
add to favorites
launch autoscroll
font size
0
reset
how to read this tab
guitar tuner
Autoscroll
slow
fast
+/-
esc
set tempo
stop
Help us to improve Ultimate-Guitar.com Take our survey!
×
Author
Difficulty
intermediate
capo first fret
this is my first tab it might be a bit wrong but it sounds good.
throughout the song jack often tremours his hand to bring out the notes better.
verse:
E|--------------------------------------------------------------------------------------|
B|-----1-------------1----------------1-----------1-----------1----------1--------------|
G|-------------0----------------0-----------0-----------0--------0h2-----------2-----0--|
D|-----0h2--------2-----0h2--------2--------------2--------2----------0-----------0-----|
A|--------------------------------------------------------------------------------------|
E|--3-------3----------------3-----------3-----3-----3----------------------3-----------|
repeat x4 singing on first and third times



E|------------------------------------------------------------------------------------------|
B|-----1-------------1----------------1-----------1-----------0-----3-----------3-----3-----|
G|-------------0----------------0-----------0-----------0-----------------0-----------------|
D|-----0h2--------2-----0h2--------2--------------2--------2--------2--------0--------0-----|
A|------------------------------------------------------------------------------------------|
E|--3-------3----------------3-----------3-----3-----3-----------0-----0-----------3--------|
   you          contol the        game          without       playing   right


E|--------------------------------|
B|-----------3-----1--------------|
G|-----0-----------------4-----0--|
D|--------0-----0-----------------|
A|--------------------------------|
E|--3--------3--------3-----3-----|
   oh  oh  oh  oh  ohh



E|-------------------3p0--------------0--------------------------------------------------------|
B|-----1------------------0-----3-----------3-----1-----1-----------1-----------1--------------|
G|-------------0----------------------------------------------0-----------4-----------2-----0--|
D|-----0h2--------2-------------------------------------2--------2-----------------------------|
A|---------------------------------------------------------------------------------------------|
E|--3-------3----------------3-----3-----3-----3-----3-----3-----------3-----3-----3-----3-----|
you can alternate the ending of this section with the ending of the verse



E|----------|
B|--1-------|
G|--0-------|
D|--0h2-----|
A|--3-------|
E|--3-------|
Suggest correction
comments
print report bad tab
3 comments total.
0 reply
savianoperry 1,129 wrote on May 21 2016, 02:09 am, edited at 02:15 am

I think the beginning is: E|------------------------------------------------------------------------------|B|----1------------1--------1-----------------1-------------------1-------------|G|-----------0-----------0-------0-----0-----------0-------0h2---------2-----0--|D|----0h2-------2----0h2-------2--------------2-------2---------0---------0-----|A|------------------------------------------------------------------------------|E|--3------3------------------------3-----3------3------------------------------|

0 reply
savianoperry 1,129 wrote on May 21 2016, 02:18 am

Demmit

It's:

E|------------------------------------------------------------------------------|
B|----1------------1--------1-----------------1--------------------1------------|
G|-----------0-----------0-------0-----0-----------0-------0h2---------2-----0--|
D|----0h2-------2----0h2-------2--------------2-------2----------0--------0-----|
A|------------------------------------------------------------------------------|
E|--3------3------------------------3-----3------3------------------------------|

0 reply
savianoperry 1,129 wrote on May 21 2016, 02:49 am

Old dust, old dirt, they're mine and only mine...

E|-----------------------------------------------------------------------------|
B|----1-------------1------1----------1-----1---------------------1------------|
G|-----------0-------------------0----------------0-------0h2---------2-----0--|
D|----0h2-------2----------2--------2-------2---------2---------0--------0-----|
A|-----------------------------------------------------------------------------|
E|--3------3-----------3-------3--------3-------3------------------------------|

E|-----------------------------------------------------------------------------|
B|----1------------1--------1-----------------1--------------------1-----------|
G|-----------0-----------0-------0-----0-----------0-------0h2---------2-----0-|
D|----0h2-------2----0h2-------2--------------2-------2----------0--------0----|
A|-----------------------------------------------------------------------------|
E|--3------3------------------------3-----3------3-----------------------------|

I'm just some mortal, you are so divine...
E|-----------------------------------------------------------------------------|
B|----1-------------1------1----------1-----1---------------------1------------|
G|-----------0-------------------0----------------0-------0h2---------2-----0--|
D|----0h2-------2----------2--------2-------2---------2---------0--------0-----|
A|-----------------------------------------------------------------------------|
E|--3------3-----------3-------3--------3-------3------------------------------|

E|-----------------------------------------------------------------------------|
B|----1------------1--------1-----------------1---------1---0---1---0----------|
G|-----------0-----------0-------0-----0-----------0-------------------0-------|
D|----0h2-------2----0h2-------2--------------2-------2------------------------|
A|-----------------------------------------------------------------------------|
E|--3------3------------------------3-----3------3--------3---3---3------------|

guest
You may want to rate the tab now too:
select rating
Wanna post a correction for this tab? Suggest correction