Oops, an error
Loading. Please wait.

Jewel tab

version 2
version 2

Whole song

Interactive

379 views 1 this week
1 commentread comment
1 2 3 4 5
2 more votes to show rating
add to favorites
×
Save as Personal and add changes to this tab that will be seen only by you. Learn more ›
×
You can save this tab as Personal to edit and correct it or add notes. All changes will be seen only by you. Learn more »
launch autoscroll
font size
0
reset
how to read this tab
guitar tuner
edit
Autoscroll
slow
fast
+/-
esc
set tempo
stop
The other tab is not entirely correct, it has quite a bit of Flaws ;)

Jewel
Bombay Bicycle Club
Flaws

Transcribed by: Saviano P.



CAPO 1



[Intro]

E|-----------------------------------------------------------------------------|
B|----1------------1--------1----------1----1----------------------1-----------|
G|-----------0-----------0-------0----------------0-------0h2----------2-----0-|
D|----0h2-------2----0h2------------2-------2--------2-----------0--------0----|
A|-----------------------------------------------------------------------------|
E|--3------3-------------------3---------3------3------------------------------|

E|-----------------------------------------------------------------------------|
B|----1------------1--------1----------1------1---------1----------1-----------|
G|-----------0-----------0-------0-----------------0-------0h2---------2-----0-|
D|----0h2-------2----0h2------------2---------2-------2----------0--------0----|
A|-----------------------------------------------------------------------------|
E|--3------3-------------------3----------3------3-----------------------------|


[Verse]

Old dust, old dirt, they're mine and only mine...
E|-----------------------------------------------------------------------------|
B|----1-------------1------1----------1-----1---------------------1------------|
G|-----------0-------------------0----------------0-------0h2---------2-----0--|
D|----0h2-------2----------2--------2-------2---------2---------0--------0-----|
A|-----------------------------------------------------------------------------|
E|--3------3-----------3-------3--------3-------3------------------------------|

E|-----------------------------------------------------------------------------|
B|----1------------1--------1----------1------1--------------------1-----------|
G|-----------0-----------0-------0----------------0-------0h2---------2------0-|
D|----0h2-------2----0h2------------2---------2-------2----------0--------0----|
A|-----------------------------------------------------------------------------|
E|--3------3-------------------3---------3------3------------------------------|


I'm just some mortal, you are so divine...
E|-----------------------------------------------------------------------------|
B|----1-------------1------1----------1-----1---------------------1------------|
G|-----------0-------------------0----------------0-------0h2---------2-----0--|
D|----0h2-------2----------2--------2-------2---------2---------0--------0-----|
A|-----------------------------------------------------------------------------|
E|--3------3-----------3-------3--------3-------3------------------------------|

E|------------------------------------------------------------------------------|
B|----1------------1--------1----------1-------1---------1---0---1--------------|
G|-----------0-----------0-------0------------------0----------------4---0------|
D|----0h2-------2----0h2------------2----------2-------2------------------------|
A|------------------------------------------------------------------------------|
E|--3------3-------------------3---------3--------3--------3---3---3------------|


You control the game without playing it right...
E|----------------------------------------------------------------------------------------------------|
B|----1-------------1------1----------1-----1-----------1---0--------0---------3--------3---1---0-----|
G|-----------0-------------------0----------------0------------0--------0---------0----------------0--|
D|----0h2-------2----------2--------2-------2---------2-----------2--------0---2-----2----0-----------|
A|----------------------------------------------------------2-----------------------------------------|
E|--3------3-----------3-------3--------3-------3--------------------0------------------3-------------|

E|-----------------------------------------------------------------------------|
B|----1------------1--------1----------1------1---------1----------1-----------|
G|-----------0-----------0-------0----------------0-------0h2---------2------0-|
D|----0h2-------2----0h2------------2---------2-------2----------0--------0----|
A|-----------------------------------------------------------------------------|
E|--3------3-------------------3----------3------3-----------------------------|

E|----------------3p0----------0------------------------------------------------|
B|----1----------------1---3-------1---------1-----------1------1---------------|
G|-----------0--------------------------0--------0-----------------2-----0------|
D|----0h2-------2--------2-----------------2--------2----0h2----------0---------|
A|------------------------------------------------------------------------------|
E|--3------3-----------------3---3----3--------3------3-------3-----------------|


Raise high in me what once did sink below...
E|-----------------------------------------------------------------------------|
B|----1-------------1------1----------1-----1---------------------1------------|
G|-----------0-------------------0----------------0-------0h2---------2-----0--|
D|----0h2-------2----------2--------2-------2---------2---------0--------0-----|
A|-----------------------------------------------------------------------------|
E|--3------3-----------3-------3--------3-------3------------------------------|

E|----------------3p0----------0------------------------------------------------|
B|----1----------------1---3-------1---------1-----------1------1---------------|
G|-----------0--------------------------0--------0-----------------2-----0------|
D|----0h2-------2--------2-----------------2--------2----0h2----------0---------|
A|------------------------------------------------------------------------------|
E|--3------3-----------------3---3----3--------3------3-------3-----------------|



All dark within now radiantly glows...
E|-----------------------------------------------------------------------------|
B|----1-------------1------1----------1-----1---------------------1------------|
G|-----------0-------------------0----------------0-------0h2---------2-----0--|
D|----0h2-------2----------2--------2-------2---------2---------0--------0-----|
A|-----------------------------------------------------------------------------|
E|--3------3-----------3-------3--------3-------3------------------------------|

E|-----------------------------------------------------------------------------|
B|----1------------1--------1--------1---------1----------1---0---1------------|
G|-----------0-----------0-----0---------0---------0------------------4----0---|
D|----0h2-------2----0h2----------2---------2----------2-----------------------|
A|-----------------------------------------------------------------------------|
E|--3------3-----------------3---------3---------3----------3---3---3---3------|


Come on take me back all that time ago...
E|----------------------------------------------------------------------------------------------------|
B|----1-------------1------1----------1-----1---------------0--------0---------3--------3---1---0-----|
G|-----------0-------------------0----------------0------------0--------0---------0----------------0--|
D|----0h2-------2----------2--------2-------2---------2-----------2--------0---2-----2----0-----------|
A|----------------------------------------------------------2-----------------------------------------|
E|--3------3-----------3-------3--------3-------3--------------------0------------------3---3---------|

E|-----------------------------------------------------------------------------|
B|----1------------1--------1--------1---------1----------1---0---1------------|
G|-----------0-----------0-----0---------0---------0------------------4----0---|
D|----0h2-------2----0h2----------2---------2----------2-----------------------|
A|-----------------------------------------------------------------------------|
E|--3------3-----------------3---------3---------3----------3---3---3---3------|

E|----------------3p0----------0------------------------------------------------|
B|----1----------------1---3-------1---------1-----------1------1---------------|
G|-----------0--------------------------0--------0-----------------2-----0------|
D|----0h2-------2--------2-----------------2--------2----0h2----------0---------|
A|------------------------------------------------------------------------------|
E|--3------3-----------------3---3----3--------3------3-------3-----------------|


Our love was just one of your discarded jewels...
E|-----------------------------------------------------------------------------|
B|----1-------------1------1----------1-----1-----------1---------1------------|
G|-----------0-------------------0----------------0-------0h2---------2-----0--|
D|----0h2-------2----------2--------2-------2---------2---------0--------0-----|
A|-----------------------------------------------------------------------------|
E|--3------3-----------3-------3--------3-------3------------------------------|

E|-------------------------------------------------------------------------------|
B|----1------------1--------1----------1--------1--------------------1-----------|
G|-----------0-----------0-------0-------------------0-------0h2---------2-----0-|
D|----0h2-------2----0h2------------2-----------2-------2----------0--------0----|
A|-------------------------------------------------------------------------------|
E|--3------3-------------------3------------3------3-----------------------------|


You think back to it's price and oh you feel a fool...
E|-----------------------------------------------------------------------------|
B|----1-------------1------1----------1-----1---------------------1------------|
G|-----------0-------------------0----------------0-------0h2---------2-----0--|
D|----0h2-------2----------2--------2-------2---------2---------0--------0-----|
A|-----------------------------------------------------------------------------|
E|--3------3-----------3-------3--------3-------3------------------------------|

E|-----------------------------------------------------------------------------|
B|----1------------1--------1--------1---------1----------1---0---1------------|
G|-----------0-----------0-----0---------0---------0------------------4----0---|
D|----0h2-------2----0h2----------2---------2----------2-----------------------|
A|-----------------------------------------------------------------------------|
E|--3------3-----------------3---------3---------3----------3---3---3---3------|


But in that certain light, it looked so beautiful...
E|----------------------------------------------------------------------------------------------------|
B|----1-------------1------1----------1-----1---------------0--------0---------3--------3---1---0-----|
G|-----------0-------------------0----------------0------------0--------0---------0----------------0--|
D|----0h2-------2----------2--------2-------2---------2-----------2--------0---2-----2----0-----------|
A|----------------------------------------------------------2-----------------------------------------|
E|--3------3-----------3-------3--------3-------3--------0-----------0---------3--------3---3---------|

E|----------------3p0----------0------------------------------------------------|
B|----1----------------1---3-------1---------1-----------1------1---------------|
G|-----------0--------------------------0--------0-----------------2-----0------|
D|----0h2-------2--------2-----------------2--------2----0h2----------0---------|
A|------------------------------------------------------------------------------|
E|--3------3-----------------3---3----3--------3------3-------3-----------------|

E|----------------3p0----------0------------------------------------------------|
B|----1----------------1---3-------1---------1-----------1------1---------------|
G|-----------0--------------------------0--------0-----------------2-----0------|
D|----0h2-------2--------2-----------------2--------2----0h2----------0---------|
A|------------------------------------------------------------------------------|
E|--3------3-----------------3---3----3--------3------3-------3-----------------|

E|----------------3p0----------0------------------------------------------------|
B|----1----------------1---3-------1---------1-----------1------1---------------|
G|-----------0--------------------------0--------0-----------------2-----0------|
D|----0h2-------2--------2-----------------2--------2----0h2----------0---------|
A|------------------------------------------------------------------------------|
E|--3------3-----------------3---3----3--------3------3-------3-----------------|

E|----------------3p0----------0------------------------------------------------|
B|----1----------------1---3-------1---------1-----------1------1---------------|
G|-----------0--------------------------0--------0-----------------2-----0------|
D|----0h2-------2--------2-----------------2--------2----0h2----------0---------|
A|------------------------------------------------------------------------------|
E|--3------3-----------------3---3----3--------3------3-------3-----------------|


            
            
Suggest correction
Creating personal tab
Creating personal tab
You can edit any tab online and save it as your Personal.

You can edit, replace or remove any tab part or add personal notes – all changes will be seen only by you.

Personal tabs can be accessed anytime from any device, even offline.
Learn more »
Give kudos to tab author, rate the tab!
1 2 3 4 5
comments
print report bad tab
1 comment total.
0 reply
ElDrumbonist 10 Jun 04, 2017 06:08 AM

Dude, this is pretty damn accurate. Sounds SO much more like the actual song.5* tab.

guest
You may want to rate the tab now too:
select rating
Wanna post a correction for this tab? Suggest correction