Oops, an error
Loading. Please wait.

Lamplight Tab

version 2
version 2

Whole song

8,166 views 30 this week
no commentswrite comment
1 2 3 4 5
x 11
add to favorites
launch autoscroll
font size
0
reset
how to read this tab
guitar tuner
Autoscroll
slow
fast
+/-
esc
set tempo
stop
Help us to improve Ultimate-Guitar.com Take our survey!
×
Author
Difficulty
intermediate
Band: Bombay Bicycle Club
Album: I Had The Blues But I Shook Them Loose
Track: #2 - Lamplight

  Intro - Guitar 1 (4x)
e|------------------------------------------------------------------------|
B|------------------------------------------------------------------------|
G|-----11----11-11-----11----111111-----11----11--11-----11---------------|
D|------x-----x--x------x-----x-x-x------x-----x---x------x--------9------|
A|-----11----11-11-----11----111111-----11----11--11-----11---9/11---11-9~|
E|-0~0~---00---0---0~0~---00--0-0-0-9~9~---99---9----9~9----9-------------|
 |Guitar 2 (2x Starting On The Third Time)                                |
e|------------------------------------------------------------------------|
B|------------------------------------------------------------------------|
G|-11b-9-11b-9-9-11-9---------------11b-9-11b-9-9-11-9--------------------|
D|--------------------9~~~~~~~~~~~~~--------------------------------------|
A|-----------------------------------------------------11~~~~~~~~~~~~~~~~~|
E|------------------------------------------------------------------------|

  Verse (same as intro without guitar 2)

  Chorus - Guitar 1 (2x)
e|------------------------------------------------------|
B|-----14-14-----12-12-----9-9-----7-7------------------|
G|-----13-13-----11-11-----9-9-----6-6------------------|
D|-----11-11------9--9-----6-6-----4-4------------------|
A|-0~0~------0~0~------0~0~----0~0~----11~11-11-11~11-9-|
E|--------------------------------------0~-0--0--0~-0-0-|
 |Guitar 2
e|-
B|--------14-14-------12-12--------9--9------------------------------|
G|--------13-13-------11-11--------9--9-------11-11------------------|
D|-11~11~-11-11-11~11~11-11-11~11~11-11-11~11~11-11------------------|
A|--0~-0~--------0~-0~-------0~-0~-------0~-0~------11~11-11-11~11-9-|
E|---------------------------------------------------0~-0--0--0~-0-0-|

  Intro - Guitar 1 (2x)
e|-
B|-
G|-
D|- SAME AS FIRST TIME
A|-
E|-
 |Guitar 2
e|---------------------------------------------------------------|
B|---------------------------------------------------------------|
G|-11b-9-11b-9-9-11-9---11b-9-11b-9-9-11-9-----------------------|
D|--------------------9~-----------------------------------------|
A|-----------------------------------------11~\9b-7-9b-7-7-9-7---|
E|-------------------------------------------------------------7~|
 |
e|---------------------|
B|------------------12~| USE TREMELO BAR HOLDING LAST TWO NOTES
G|-11b-9-11b-9-9/13~~~~|
D|---------------------|
A|---------------------|
E|---------------------|

  Verse
  Chorus (JUST BASS FIRST TWO TIMES ONLY)
  Post-Chorus (STRUM CHORUS CHORDS)

  Bridge - Guitar 1 (8x)
e|---------------------------------------------------------|
B|---------------------------------------------------------|
G|--7--7-7--7-7-7--7-7--7-7-7--7-7--7-7-7--7-7-11\-6~/9~\4~|
D|--x--x-x--x-x-x--x-x--x-x-x--x-x--x-x-x--x-x-11\-6~/9~\4~|
A|-11~1111-111111~1111-111111~1111-111111~1111---\---/--\--|
E|--0~-0-0--0-0-0~-0-0--0-0-0~-0-0--0-0-0~-0-0-10~\5~/9~\4~|

  Chorus(HALF TIME)

  End - Guitars 1&2
e|------------------|
B|------------------|
G|---------------11~|
D|----------------x~|
A|-4~0-2~0-7~----11~|
E|-----------0-2~-0~|

Thats it. Im sure its 100% correct. Leave a comment and rate the tab. Follow me on 
YouTube, Twitter, Tumblr, Instagram and Kik me all at HRchoni.
Suggest correction
comments
print report bad tab
guest
You may want to rate the tab now too:
select rating
Wanna post a correction for this tab? Suggest correction