Oops, an error
Loading. Please wait.

Leave It Bass Tab

version 1
version 1

Whole song

Interactive

3,185 views 3 this week
no commentswrite comment
1 2 3 4 5
please rate
add to favorites
launch autoscroll
font size
0
reset
guitar tuner
Tab Pro tools
  • play this tab
  • loop segment
  • change instrument
  • show fretboard
  • metronome
×
Best way to learn
"Leave It"
Autoscroll
slow
fast
+/-
esc
set tempo
stop
Contributor
Difficulty
novice
Bombay Bicycle Club - Leave It (Bass)
Tabbed by Arman Dezfuli-Arjomandi
rawrmaan@gmail.com

This tab is split into sections. See song order below.

Verse Riff 1

G|--------------------------|
D|------8---8--5-5-5---5----|
A|--6-6---6----------5---5--|
E|--------------------------|

Verse Riff 2

G|---------------------------------------------------|
D|---------------------------------------------------|
A|--6-6-6-6-6-6-------------3-3-3-3-3-3--------------|
E|--------------3-3-3-3-3-3-------------6-6-6-6-6-6--|

Verse RIff 3

G|---------------------------------------------------|
D|--------------5-5-5-5-5-5--------------------------|
A|--6-6-6-6-6-6-------------3-3-3-3-3-3--------------|
E|--------------------------------------6-6-6-6-6-6--|


G|---------------------------------------------------|
D|--------------5-5-5-5-5-5--------------------------|
A|--6-6-6-6-6-6-------------3-3-3-3-3-3-3-3-3-3-3-3--|
E|---------------------------------------------------|

Chorus

G|---------------------------------------------------|
D|---------------------------------------------------|
A|--3-3-3-3-3-3--------------------------------------|
E|--------------6-6-6-6-6-6-4-4-4-4-4-4-6-6-6-6-6-6--|

G|-----------------------------------------------------|
D|-----------------------------------------------------|
A|--3-3-3-3-3-3----------------------------------------|
E|--------------6-6-6-6-6-6-4-4-4-4-4-4-4-4-4-3-3-3-(6)|

When you play Chorus x2, end first with 4-4-4, then with 3-3-3.

Bridge

G|-----------------------------------------------------|
D|------8---8--5-5-5---5-------------------------------|
A|--6-6---6----------5---5-------10---10------8-----8--|
E|---------------------------8-8----8-----6-6---6-6----|

SONG ORDER (come in at at 0:11)

Verse Riff 1 x8
Verse Riff 2 x4
Chorus
Verse Riff 1 x10
Verse Riff 2 x2
Verse Riff 3 x2
Chorus x2
Break until 2:31
Bridge x4
Chorus x2
comments
We did not receive enough feedback on this tab! Please rate:
print report bad tab
1 2 3 4 5
I want to post or [tab]
guest
You may want to rate the tab now too:
select rating
Please do not post tabs as comments. Select "correction" instead!