Oops, an error
Loading. Please wait.

Leaving Blues Bass Tab

version 1
version 1

Whole song

Interactive

720 views 1 this week
no commentswrite comment
1 2 3 4 5
2 more votes to show rating
add to favorites
launch autoscroll
font size
0
reset
guitar tuner
Autoscroll
slow
fast
+/-
esc
set tempo
stop
Help us to improve Ultimate-Guitar.com Take our survey!
×
Author
Difficulty
novice
Bombay bicycle club - Leaving Blues
Standard tuning.

BASS (Comes in with the singing at verse2)

VERSE 2
G|--------|
D|--------|
A|--------|
E|--7--2--|


CHORUS
G|-----------------------------|
D|-----------------------------|
A|-----------2-----------------|
E|--5-0-2h4-----2/7--2/7--0h2--|


MIDDLE EIGHTH
G|---------|-----------------|---------|-------------------|
D|---------|-----------------|---------|-------------------|
A|-4--2----|--4--2-----------|-4--2----|---2---------------|
E|-------5-|--------2--2h4-2-|-------5-|-0----2/7--2/7--0h2|

OUTRO
Same as verse2 
Suggest correction
Give kudos to tab author, rate the tab!
1 2 3 4 5
comments
print report bad tab
guest
You may want to rate the tab now too:
select rating
Wanna post a correction for this tab? Suggest correction