Oops, an error
Loading. Please wait.

Leaving Blues Tab

version 2
version 2

Whole song

Interactive

1,837 views 1 this week
no commentswrite comment
1 2 3 4 5
please rate
add to favorites
launch autoscroll
font size
0
reset
how to read this tab
guitar tuner
Autoscroll
slow
fast
+/-
esc
set tempo
stop
Help us to improve Ultimate-Guitar.com Take our survey!
×
Author
Difficulty
Capo
intermediate
4th fret
-------------------------------------------------------------------------------
                             LEAVING BLUES - Bombay Bicycle Club
-------------------------------------------------------------------------------
Tabbed by: jacob
Email: spotsandstripes@hotmail.co.uk

Tuning: Standard EADGBe
capo 4th fret


                              -VERSE-
e|---------------------------------0-----------------------------------------|
B|-------3------------------------------3--------1--------0------------------|
G|------------------0-------0----------------------------------------0-------|
D|-------0--------------0--------------------0-----------------0-------------|
A|---------------------------------------------------------------------------|
E|--3-----------3------------------3-------------------3---------------------|
                       


                     Play these 3 
                     V quicker V
                                         -VERSE-
e|---------------------------------------------------------------------------|
B|--------------------------------------0------------------------------------|
G|-------5--------------------5-------------------5----------------0---------|
D|-------3--------3-------3-------------------3------------3-----------------|
A|---5-----------------5---------------------------------------5-------------|
E|------------5---------------------5------------------5---------------------|
                         

                                -CHORUS-
e|----------------------0------------------------------------------0---------|
B|-------1-------------------------------1------------------0h1--------------|
G|--------------2----------------2----------------2--------------------------|
D|-------3----------3----------------3-----------------3-----------2---------|
A|------------------------------------------------------------3--------------|
E|---1-------1---------------1----------------1------------------------------|

         Play these 3  
       V very quickly V      
                               -CHORUS-
e|---------------------------------------------------------------------------|
B|-------------1---------------1------------------0--------------------------|
G|----0-----0----------0-----------------0-----------------------------------|
D|-------2-----------------2------------------2------------------------------|
A|------------------3--------------------------------------------------------|
E|-3--------------------------------3----------------------------------------|


The verses / choruses are basically like that, but often with variations.

 I couldn't hear the chorus very well as he's always singing over it so it's not exact.
 Rest of tab not included (Second half's other section - about 1:45 onwards)


Lyrics: 
Now your back's to the road
The waiting's everything you know
I'm sure you know that I'm leaving

Riding home everyday
Sure in a cinematic way
Breathing the smoke of the train
Keep the thought of you aflame
I'm sure you know that I'm leaving

Curse God for my regret
I miss you indefinite
Not once did I think that
Love would stay til I come back

Now your back's to the road
The waiting's everything you know
I'm sure you know that I'm leaving      


************************************

| /   slide up
| \   slide down
| h   hammer-on
| p   pull-off
| ~   vibrato
| +   harmonic
| x   Mute note
| b   Bend
| pb  Pre-bend
| br  Bend release
| pbr Pre-bend release
| brb Bend release bend

************************************
Suggest correction
Give kudos to tab author, rate the tab!
1 2 3 4 5
comments
print report bad tab
guest
You may want to rate the tab now too:
select rating
Wanna post a correction for this tab? Suggest correction