Oops, an error
Loading. Please wait.

Leaving Blues Tab

version 3
version 3

Whole song

Interactive

33,558 views 60 this week
5 commentsread comments
1 2 3 4 5
x 30
add to favorites
launch autoscroll
font size
0
reset
how to read this tab
guitar tuner
×
Best way to learn
"Leaving Blues"
Autoscroll
slow
fast
+/-
esc
set tempo
stop
Author
Difficulty
Capo
intermediate
4th fret
Capo 4th fret in standard tuning

[Intro/Main Riff]
e|-----------------0-------------------------------------------|
B|-----3--------3-----3--1--0--------------------0-------------|
G|----------0------------------0----5--------5-------5-------0-|
D|-----0------0--------0-----0------3---3---3------------3-----|
A|-------------------------------5---------5-------5-------5---|
E|---3----3--------3------3----------5----------5-----5--------|

"I'm sure you know that I'm leaving"

e|-----------------0----------------------|
B|------1--------------1---------1--------|
G|-----------2--------------2----------2--|
D|------3-------3--------3----------3-----|
A|----------------------------------------|
E|---1-----1---------1----------1---------|

e|-----------------0-----------------------|
B|------1--------------1-----------1-------|
G|------------0--------------0-----------0-|
D|------2--------2--------2-----------2----|
A|---3-----3---------3----------3----------|
E|-----------------------------------------|

Then back into main riff

[Bridge]
"Curse god..."
e|-----0------------------------------------------0-------------------|
B|---------------1-----3---------0-----0-------------------0----------|
G|----------2---------------0----------------2--------2---------2-----|
D|-----2-------2-------0-------0-------3--------3--------3----------3-|
A|--0-----0-----------------------------------------------------------|
E|------------------3-----3---------1------1-------1----------1-------|

"Miss you...."

e|-----0-------------------------------2----------3--------3----------|
B|---------------1-----3---------0----------3---------3----------3----|
G|----------2---------------0----------2-------2---------2----------2-|
D|-----2-------2-------0-------0----0-----0--------0----------0-------|
A|--0-----0-----------------------------------------------------------|
E|------------------3-----3-------------------------------------------|

"Not once did I think that...."

e|-----0------------------------------------------0-------------------|
B|---------------1-----3---------0-----0-------------------0----------|
G|----------2---------------0----------------2--------2---------2-----|
D|-----2-------2-------0-------0-------3--------3--------3----------3-|
A|--0-----0-----------------------------------------------------------|
E|------------------3-----3---------1------1-------1----------1-------|

"Love would stay until I come ...."

e|-----------------0--------------------|
B|------1---------------------1---------|
G|------------0----------0--------0-----|
D|------2--------2----------2--------2--|
A|--3-------3---------3---------3-------|
E|--------------------------------------|

"back."

[Main riff]
e|-----------------0-------------------------------------------|
B|-----3--------3-----3--1--0--------------------0-------------|
G|----------0------------------0----5--------5-------5-------0-|
D|-----0------0--------0-----0------3---3---3------------3-----|
A|-------------------------------5---------5-------5-------5---|
E|---3----3--------3------3----------5----------5-----5--------|

Underneath is a little change he does after the chorus on the second repeat, a 
little difference on
the G chord listen out for it, its a little triplet he does.

e|------------------0-------------------------------------------|
B|-----3---------3-----3--1--0--------------------0-------------|
G|----------0---0---------------0----5--------5-------5-------0-|
D|-----0-------0--------0-----0------3---3---3------------3-----|
A|--------------------------------5---------5-------5-------5---|
E|---3----3---------3------3----------5----------5-----5--------|
               *
Suggest correction
comments
print report bad tab
5 comments total. Showing first comments.
0 reply
Lord Guitarhead 92 Feb 16, 2011 11:36 AM

Honestly bud this is great tab u saved my life :)

0 reply
zuthi 148 Jan 19, 2012 12:45 PM

Thank you. That's beautiful, I see what you mean though, I'm addicted now!

0 reply
leowilliams95 10 Dec 10, 2013 06:44 AM

Really good tab. I wish everyone on this site shared the same ear - or at least recognise that they don't!

guest
You may want to rate the tab now too:
select rating
Wanna post a correction for this tab? Suggest correction