Oops, an error
Loading. Please wait.

Lights Out Words Gone Bass Tab

version 1
version 1

Whole song

10,068 views 9 this week
no commentswrite comment
1 2 3 4 5
x 5
add to favorites
launch autoscroll
font size
0
reset
guitar tuner
Autoscroll
slow
fast
+/-
esc
set tempo
stop
Help us to improve Ultimate-Guitar.com Take our survey!
×
Author
Difficulty
novice
I dont mind taking requests for bass tabs and will try my best to get 
them accurate, especially if the song is good and worth doing!
Just leave a message on my profile wall.

-------------------------------------------------------------------------------
                 Lights Out, Words Gone - Bombay Bicycle Club
-------------------------------------------------------------------------------

Tabbed By : Callum Urquhart

Tuning: Standard

>>> Ive recently updated this, I noticed a few off notes. Im pretty sure its 100% now.

Pretty fun and easy song to play on bass, the whole thing seems to consist
of the three parts below:

Verses

G|---------------------------------------------------------|
D|---------------------------------------------------------|
A|----------6--6--------8--8--------10-12-13---------------|
E|----4-4-4-------6-6-6-------8-8-8----------6-6-6-6-------|

G|---------------------------------------------------------|
D|---------------------------------------------------------|
A|----------6--6--------8--8--------10-8-10----------------|
E|-3--4-4-4-------6-6-6-------8-8-8---------6-6-6-6--------|


G|---------------------------------------------------------|
D|---------------------------------------------------------|
A|----------6--6--------8--8--------10-12-13-------8\\\----|
E|-3--4-4-4-------6-6-6-------8-8-8----------6-6-6---------|

G|---------------------------------------------------------|
D|---------------------------------------------------------|
A|----------6--6--------8--8--------10-8-10----------------|
E|-3--4-4-4-------6-6-6-------8-8-8---------6-6-6-6-8--9---|

Fill

G|---------------------------------------------------------|
D|---------------------------------------------------------|
A|-8-8-8-8--6---8-8-8-8--6---8-8-8-8--6---8\\\-------------|
E|----------------------------------------------1----------|

The last fill in the song is a lot longer than this,
but the same idea.

End

G|---------------------------------------------------------|
D|---------------------------------------------------------|
A|---------------------------------------------------------|
E|-4>>>----------------8>>>-----///13>>>-------------------|

| >  hold note
| /  slide up
| \  slide down
| h  hammer-on
| p  pull-off
| ~  vibrato
| +  harmonic
| x  Mute note
===============================================================================
Suggest correction
comments
print report bad tab
guest
You may want to rate the tab now too:
select rating
Wanna post a correction for this tab? Suggest correction