Oops, an error
Loading. Please wait.

Lights Out Words Gone Bass Tab

version 2
version 2

Whole song

9,210 views 45 this week
2 commentsread comments
1 2 3 4 5
excellent!
x 9
add to favorites
launch autoscroll
font size
0
reset
guitar tuner
Autoscroll
slow
fast
+/-
esc
set tempo
stop
Help us to improve Ultimate-Guitar.com Take our survey!
×
Author
Difficulty
intermediate
Bombay Bicycle Club - Lights Out, Words Gone (Bass)
Tabbed by Arman Dezfuli-Arjomandi
rawrmaan@gmail.com

This tab is split into sections. See song order below.

Verse Riff 1

G|-----------------------------------------------------|
D|--------------------------------------8--------------|
A|--------6--6--------8--8--------10-11----------8\----|
E|--4-4-4-------6-6-6-------8-8-8----------6-6-6----3--|

Verse Riff 2

G|-----------------------------------------------------|
D|-----------------------------------------------------|
A|--------6--6--------8--8--------10-8-10-------8------|
E|--4-4-4-------6-6-6-------8-8-8----------6-6-6-6\-3--|

Verse Riff 3

G|-----------------------------------------------------|
D|-----------------------------------------------------|
A|--------6--6--------8--8--------10-8-10-------8------|
E|--4-4-4-------6-6-6-------8-8-8----------6-6-6-6-8-9-|

Verse Riff 4

G|-----------------------------------------------------|
D|-----------------------------------------------------|
A|--------6--6--------8--8--------10-8-10--------------|
E|--4-4-4-------6-6-6-------8-8-8----------6-6-6-6\----|

Break

G|-----------------------------------------------------|
D|-----------------------------------------------------|
A|--8-8-8-8--6--8-8-8-8--6--8-8-8-8--6--8\-------------|
E|------------------------------------------1----------|

Bridge

G|--------------|      G|--------------|
D|--------------|      D|--------------|
A|--8-8-8-8--6--| x23  A|--8\----------|
E|--------------|      E|------1-------|

Ending

G|-----------------------------------------------------|
D|-----------------------------------------------------|
A|-----------------------------------------------------| x3
E|--4----------------------/8----------/13-------------|

G|-----------------------------------------------------|
D|-----------------------------------------------------|
A|-----------------------------------------------------|
E|--4----------------------/8----------\1--------------|

SONG ORDER

Verse Riff 1
Verse Riff 2
Verse Riff 1
Verse RIff 3

Break

Verse Riff 1
Verse Riff 2
Verse Riff 1
Verse Riff 2
Verse Riff 1
Verse Riff 3

Break

Verse Riff 1
Verse Riff 2
Verse Riff 1
Verse Riff 4
Verse Riff 1
Verse Riff 3

Bridge

Verse Riff 1
Verse Riff 2
Verse Riff 1
Verse Riff 2

Ending
Suggest correction
comments
print report bad tab
2 comments total.
0 reply
thinkinggrapes 10 wrote on September 9 2014, 02:59 pm

I put it together lids

Verse Riff 1
G|-----------------------------------------------------|
D|--------------------------------------8--------------|
A|--------6--6--------8--8--------10-11----------8\----|
E|--4-4-4-------6-6-6-------8-8-8----------6-6-6----3--|
Verse Riff 2
G|-----------------------------------------------------|
D|-----------------------------------------------------|
A|--------6--6--------8--8--------10-8-10-------8------|
E|--4-4-4-------6-6-6-------8-8-8----------6-6-6-6\-3--|
Verse Riff 1
G|-----------------------------------------------------|
D|--------------------------------------8--------------|
A|--------6--6--------8--8--------10-11----------8\----|
E|--4-4-4-------6-6-6-------8-8-8----------6-6-6----3--|
Verse RIff 3
G|-----------------------------------------------------|
D|-----------------------------------------------------|
A|--------6--6--------8--8--------10-8-10-------8------|
E|--4-4-4-------6-6-6-------8-8-8----------6-6-6-6-8-9-|

Break
G|-----------------------------------------------------|
D|-----------------------------------------------------|
A|--8-8-8-8--6--8-8-8-8--6--8-8-8-8--6--8\-------------|
E|------------------------------------------1----------|

Verse Riff 1
G|-----------------------------------------------------|
D|--------------------------------------8--------------|
A|--------6--6--------8--8--------10-11----------8\----|
E|--4-4-4-------6-6-6-------8-8-8----------6-6-6----3--|
Verse Riff 2
G|-----------------------------------------------------|
D|-----------------------------------------------------|
A|--------6--6--------8--8--------10-8-10-------8------|
E|--4-4-4-------6-6-6-------8-8-8----------6-6-6-6\-3--|
Verse Riff 1
G|-----------------------------------------------------|
D|--------------------------------------8--------------|
A|--------6--6--------8--8--------10-11----------8\----|
E|--4-4-4-------6-6-6-------8-8-8----------6-6-6----3--|
Verse Riff 2
G|-----------------------------------------------------|
D|-----------------------------------------------------|
A|--------6--6--------8--8--------10-8-10-------8------|
E|--4-4-4-------6-6-6-------8-8-8----------6-6-6-6\-3--|
Verse Riff 1
G|-----------------------------------------------------|
D|--------------------------------------8--------------|
A|--------6--6--------8--8--------10-11----------8\----|
E|--4-4-4-------6-6-6-------8-8-8----------6-6-6----3--|
Verse Riff 3
G|-----------------------------------------------------|
D|-----------------------------------------------------|
A|--------6--6--------8--8--------10-8-10-------8------|
E|--4-4-4-------6-6-6-------8-8-8----------6-6-6-6-8-9-|

Break
G|-----------------------------------------------------|
D|-----------------------------------------------------|
A|--8-8-8-8--6--8-8-8-8--6--8-8-8-8--6--8\-------------|
E|------------------------------------------1----------|

Verse Riff 1
G|-----------------------------------------------------|
D|--------------------------------------8--------------|
A|--------6--6--------8--8--------10-11----------8\----|
E|--4-4-4-------6-6-6-------8-8-8----------6-6-6----3--|
Verse Riff 2
G|-----------------------------------------------------|
D|-----------------------------------------------------|
A|--------6--6--------8--8--------10-8-10-------8------|
E|--4-4-4-------6-6-6-------8-8-8----------6-6-6-6\-3--|
Verse Riff 1
G|-----------------------------------------------------|
D|--------------------------------------8--------------|
A|--------6--6--------8--8--------10-11----------8\----|
E|--4-4-4-------6-6-6-------8-8-8----------6-6-6----3--|
Verse Riff 4
G|-----------------------------------------------------|
D|-----------------------------------------------------|
A|--------6--6--------8--8--------10-8-10--------------|
E|--4-4-4-------6-6-6-------8-8-8----------6-6-6-6\----|
Verse Riff 1
G|-----------------------------------------------------|
D|--------------------------------------8--------------|
A|--------6--6--------8--8--------10-11----------8\----|
E|--4-4-4-------6-6-6-------8-8-8----------6-6-6----3--|
Verse Riff 3
G|-----------------------------------------------------|
D|-----------------------------------------------------|
A|--------6--6--------8--8--------10-8-10-------8------|
E|--4-4-4-------6-6-6-------8-8-8----------6-6-6-6-8-9-|

Bridge
G|--------------| G|--------------|
D|--------------| D|--------------|
A|--8-8-8-8--6--| x23 A|--8\----------|
E|--------------| E|------1-------|

Verse Riff 1
G|-----------------------------------------------------|
D|--------------------------------------8--------------|
A|--------6--6--------8--8--------10-11----------8\----|
E|--4-4-4-------6-6-6-------8-8-8----------6-6-6----3--|
Verse Riff 2
G|-----------------------------------------------------|
D|-----------------------------------------------------|
A|--------6--6--------8--8--------10-8-10-------8------|
E|--4-4-4-------6-6-6-------8-8-8----------6-6-6-6\-3--|
Verse

+1 reply
manywaysthisway 10 wrote on December 4 2014, 11:21 am

I thought I heard an extra note during the first verse that starts at 1:36.

Verse Riff 1 (+ extra note)

G|-------------------------------------------------------|
D|--------------------------------------8----------------|
A|--------6--6--------8--8--------10-11---10-------8\----|
E|--4-4-4-------6-6-6-------8-8-8------------6-6-6----3--|

Hope this is ok

guest
You may want to rate the tab now too:
select rating
Please do not post tabs as comments. Select "correction" instead!