Oops, an error
Loading. Please wait.

Luna Bass Tab

version 1
version 1

Whole song

5,745 views 18 this week
no commentswrite comment
1 2 3 4 5
worth learning
x 5
add to favorites
launch autoscroll
font size
0
reset
guitar tuner
Tab Pro tools
  • play this tab
  • loop segment
  • change instrument
  • show fretboard
  • metronome
Autoscroll
slow
fast
+/-
esc
set tempo
stop
Contributor
LUNA - Bombay Bicycle Club

Tabbed by: Matt Horsman

Tuning: Standard

(0:12 - Starts off very quietly!)
G|------------2333222--------------------------------------------------|
D|--333--33335--------5--------------333--333----------------------333-|
A|-3----3---------------111-000-3---3----3----3555-3555-3111-1333-3----|
E|---------------------------------------------------------------------|

(0:39)
G|-----------------------------------------------------------------|
D|-55-555-555-5777-----------------55-555-555-5777-----------------|
A|-----------------11-111-111-1333-----------------11-111-111-1333-|
E|-----------------------------------------------------------------|

(0:55)
G|-----------------------------------------------------------------|
D|-555555555555-------------------555555555555---------------------|
A|-------------000-111111111111333------------000-111111111111333--|
E|-----------------------------------------------------------------|

(1:11)
G|---------------5-----2333222-------------------------------------|
D|-----------333--33335--------5-----------------------------------|
A|-555-3555-3--------------------111-000-3-------------------------|
E|-----------------------------------------------------------------|

(1:27)
G|-----------------------------------------------------------------|
D|--333--333-------------------------------------------------------|
A|------3----3555-3555-3111-1333-3-888\----------------------------|
E|--------------------------------------1--------------------------|

(1:42)
G|-----------------------------------------------------------------|
D|-55-555-555-5777-----------------55-555-555-5777-----------------|
A|-----------------11-111-111-1333-----------------11-111-111-1333-|
E|-----------------------------------------------------------------|

(1:58)
G|------7-7-7------------------------------------------------------|
D|-5-5-5-----3-3-3333----------------------------------------------|
A|--------------------5-5-5-3-3-3-1-1-1111-------------------------|
E|-----------------------------------------------------------------| X3

Then:
G|------7-7-7------------------------------------------------------|
D|-5-5-5-----3-3-3333----------------------------------------------|
A|--------------------5-5-5-3-3-3-1--------------------------------|
E|-----------------------------------------------------------------|

(2:29)
G|-----7777------------------------------7777---------------------3-3--|
D|-5555----3333-333------------------5555----3333-333------------3-3-3-|
A|------------------555533331111-111------------------55553333111------|
E|---------------------------------------------------------------------|

(2:46)
G|-------7777------------------------------33----------------------|
D|-55-555----33-333-3---------------------3--3---------------------|
A|-------------------53--55-555-3333-11-11-------------------------|
E|-----------------------------------------------------------------|

G|-------7777-------5----------------------33----------------------|
D|-55-555----33-333-----------------------3--3---------------------|
A|-------------------53--55-555-3333-11-11-------------------------|
E|-----------------------------------------------------------------|

End!                                                            

First time posting a tab on here, I fell in love
with this song the first time I heard it, it's such
a fun bassline and I'm pretty sure the tab is 99% accurate!
It might take a while to get the timings right but stick some
headphones in to hear the changes better.

Please feel free to comment below, enjoy!

| /  slide up
| \  slide down
| h  hammer-on
| p  pull-off
| ~  vibrato
| +  harmonic
| x  Mute note
comments
print report bad tab
I want to post or [tab]
guest
You may want to rate the tab now too:
select rating
Please do not post tabs as comments. Select "correction" instead!