Oops, an error
Loading. Please wait.

Maybe More tab

124 views 3 this week
no commentswrite comment
1 2 3 4 5
1 last vote to show rating
add to favorites
×
Save as Personal and add changes to this tab that will be seen only by you. Learn more ›
×
You can save this tab as Personal to edit and correct it or add notes. All changes will be seen only by you. Learn more »
launch autoscroll
font size
0
reset
how to read this tab
guitar tuner
edit
Autoscroll
slow
fast
+/-
esc
set tempo
stop
Bombay Bicycle Club
Maybe More
How We Are EP

Jack Steadman
Maybe More

Tabbed By Saviano P



[Intro]

e|--------------------------------------|
B|--------------------------------------|
G|-16--------------(x8)--16-16-16-16-16-|
D|---16-0------6~--------16-16-16-16-16-| (Steadman Version)
A|--------7-0--0~-----------------------|
E|--------------------------------------|

OR 

e|----------------------------------|
B|----------------------------------|
G|-16--------------(x8)--16---------| (BBC Version)
D|---16-0------6~----------16-0-----|
A|--------7-0--0~---------------7---|
E|----------------------------------|


[Verse 1]

A                             F#m
And he took whats left and he made for the door 
      C#m
oh so fast 
      B
oh so fast
          A                   F#m
while his act of theft put a smile on his face
             C#m 
but it wont last
        B
it wont last no


[Break]

e|------------------------------------------------------------------------|
B|----------------------------------------9--9--9--9--9--9--9--9--9-5-5-5-|
G|-13-------13-------13-------13----------9--9--9--9--9--9--9--9--9-6-6-6-|
D|----16-14----16-------16-14----16------11-11-11-11-11-11-11-11-11-7-7-7-| (x2)
A|----------------16----------------16---11-11-11-11-11-11-11-11-11-7-7-7-|
E|----------------------------------------9--9--9--9--9--9--9--9--9-5-5-5-|


[Chorus]

F#m      F#m       C#m      A      
will you decide to put this behind you
F#m      F#m       C#m      A     
will you decide to put this behind you
F#m      F#m       C#m      A      
will you decide to put this behind you
F#m      F#m       C#m      A          F#m
will you decide to put this behind you now

Guitar 2:
e|----------------------------------------------------------------------|
B|----------------------------------14-14-14----------12-12-12----------|
G|-11-11-11-9-9-9-13-13-13-11-11-11----------13-13-13----------13-14----| (x2)
D|-------------------------------------------------------------------16-|
A|----------------------------------------------------------------------|
E|----------------------------------------------------------------------|


[Verse 2]

A                         F#m
and i gave my coat to the one i loved
C#m
we would walk
         B
we would walk
    A                             F#m
but she changed the pace and she turned her face
C#m                           B
she said its not us, were not old enough

[Break]


[Chorus]

[Bridge]

C#m   B    A   F#m


[Outro]

A    C#m

            
            
Suggest correction
Creating personal tab
Creating personal tab
You can edit any tab online and save it as your Personal.

You can edit, replace or remove any tab part or add personal notes – all changes will be seen only by you.

Personal tabs can be accessed anytime from any device, even offline.
Learn more »
Give kudos to tab author, rate the tab!
1 2 3 4 5
comments
print report bad tab
guest
You may want to rate the tab now too:
select rating
Wanna post a correction for this tab? Suggest correction