Oops, an error
Loading. Please wait.

Rinse Me Down tab

version 2
version 2

Whole song

Interactive

34,427 views 21 this week
5 commentsread comments
1 2 3 4 5
x 21
add to favorites
×
Save as Personal and add changes to this tab that will be seen only by you. Learn more ›
×
You can save this tab as Personal to edit and correct it or add notes. All changes will be seen only by you. Learn more »
launch autoscroll
font size
0
reset
how to read this tab
guitar tuner
edit
Autoscroll
slow
fast
+/-
esc
set tempo
stop
Band - Bombay Bicycle Club
Song - Rinse Me Down
Album - Flaws

Standard Tuning EADGBe
With Capo on 2nd Fret

Hi guys wanted to get a proper tab for this for ages so decided to figure it out for 
and thought I would share it with you all.Feel free to add any comments or changes you 
should be made.
Hope you can figure it out its quite tricky to start with but wont take long til your 
it with your eyes shut:)Enjoy!

So,just 1 guitar,played by Jack.Jamie does play guitar 2 but as far as ive worked out so 
its basically just the same as guitar 1.
Also,ive tabbed it relative to the capo.

 [Intro]
e|-----2---------------2-----------------|
B|------3-3-------------3-3--------------|
G|-0h2----2p0-0-0--0h2----2p0-0-0-0------|    x2
D|-0--0--0-------0----0--0------0--------|
A|-------------2---------------2---------|
E|---------------------------------------|

 [Verse]
e|-----0-----0----------------------------------------|
B|------3-3---3-3----3-----3--3------3-----3--3-------|
G|-------------------------0--0------0-----0--0-------|
D|----0-----0-------0------0--0-----0------0--0-------|
A|-0h2-----0-----0h2--0h20-------0h2--0h20------------|
E|------------------------3----3----------3----3------|

e|---------------------------------------------------------|
B|----------3-3-3---3-----3-3----------3--3--3--3----------|
G|--------0-0-0-0---0-----0-0-2p0------0--0--0--0----------|
D|-0--2-4---0-0-0----------------4-2-0-4--4--4--4----------|
A|---------2---2-0h2-0h20-------------2----2-----2---------|
E|-3-3---3---------------3---3-----------------------------|

And then you just go back to the Intro, its pretty confusing, some notes are very subtle 
played sometimes and not others but if you just learn it then you can sort of play it 
ear really.

So there you go, a really Quality song from BBC And a great tune to add to your collection:)

************************************

| h  Hammer-on
| p  Pull-off

************************************
Suggest correction
Creating personal tab
Creating personal tab
You can edit any tab online and save it as your Personal.

You can edit, replace or remove any tab part or add personal notes – all changes will be seen only by you.

Personal tabs can be accessed anytime from any device, even offline.
Learn more »
comments
print report bad tab
5 comments total. Showing first comments.
0 reply
jellynips93 10 Nov 01, 2010 03:51 PM

great tab, really helped me get a better feel of the tune. spot on!

0 reply
ill_informed 73 May 04, 2011 10:26 PM

indeed, thanks a bunch. almost learned every song, just need 'my god'

0 reply
LaggyLobster 10 Aug 19, 2011 10:20 AM

brilliant!

guest
You may want to rate the tab now too:
select rating
Wanna post a correction for this tab? Suggest correction