Oops, an error
Loading. Please wait.

What If bass

version 1
version 1

Whole song

4,477 views 3 this week
2 commentsread comments
1 2 3 4 5
x 5
add to favorites
×
Save as Personal and add changes to this tab that will be seen only by you. Learn more ›
×
You can save this tab as Personal to edit and correct it or add notes. All changes will be seen only by you. Learn more »
launch autoscroll
font size
0
reset
guitar tuner
edit
Autoscroll
slow
fast
+/-
esc
set tempo
stop
Author
Difficulty
---------------------------------------------------------------------
			What If – Bombay Bicycle Club
---------------------------------------------------------------------

Tabbed By : Tom Gormley
e-mail: gormley13@yahoo.co.uk

Tuning: Standard

Verse/Intro
G|--------------------------------------------------|
D|--------------------------------------------------|
A|--------------------------------------------------|
E|77-7777-77-7777-1010-10101010-1515-15151515-------|
(10s and 15s)

Fill 1
G|------------9----------------------|
D|-----------------------------------|
A|7~---5~--6-7~---5~-----------------|
E|-----------------------------------|

Fill 2
G|---9--9----7-------------------------|
D|-------------------------------------|
A|777-77--555-555667-------------------|
E|-------------------------------------|

Pre Chorus
G|-----------------------------------------------------------|
D|-----------------------------------------------------------|
A|-----------------------------------------------------------|
E|3~-------5~-------7~—10~--12-12-12-12-12-12-12-12----------|

Chorus
G|----------------------------------------|
D|----------------------------------------|
A|----------------------------------------|
E|3(x16)-5(x16)-7(x8)-10(x8)-12(x16)------|

Order

Intro (x6)
Fill 1
Fill 2 (x8)
Pre Chorus
Chorus
Verse (x6)
Fill 1
Fill 2 (x8)
Pre Chorus
Chorus (x4)
Verse (x4)

Finish on
G|---
D|---
A|---
E|-7-


| /  slide up
| \  slide down
| h  hammer-on
| p  pull-off
| ~  vibrato
| +  harmonic
| x  Mute note
===============================================================================

            
            
Suggest correction
Creating personal tab
Creating personal tab
You can edit any tab online and save it as your Personal.

You can edit, replace or remove any tab part or add personal notes – all changes will be seen only by you.

Personal tabs can be accessed anytime from any device, even offline.
Learn more »
comments
print report bad tab
2 comments total.
0 reply
Chris 10B 10 May 05, 2011 12:00 PM

The guitar tab for this PLEEEEASE!

0 reply
thinkinggrapes 10 Jul 25, 2014 04:58 AM

Hey there, I just wanted to make the tab linear, to make it easier to follow, otherwise it seems great :)

Verse/Intro
G|--------------------------------------------------|
D|--------------------------------------------------|
A|--------------------------------------------------|
E|77-7777-77-7777-1010-10101010-1515-15151515-------| x6
(10s and 15s)

Fill 1
G|------------9----------------------|
D|-----------------------------------|
A|7~---5~--6-7~---5~-----------------|
E|-----------------------------------|

Fill 2
G|---9--9----7-------------------------|
D|-------------------------------------|
A|777-77--555-555667-------------------|
E|-------------------------------------| x8

Pre Chorus
G|-----------------------------------------------------------|
D|-----------------------------------------------------------|
A|-----------------------------------------------------------|
E|3~-------5~-------7~?10~--12-12-12-12-12-12-12-12----------|

Chorus
G|----------------------------------------|
D|----------------------------------------|
A|----------------------------------------|
E|3(x16)-5(x16)-7(x8)-10(x8)-12(x16)------|

Verse/Intro
G|--------------------------------------------------|
D|--------------------------------------------------|
A|--------------------------------------------------|
E|77-7777-77-7777-1010-10101010-1515-15151515-------| x6
(10s and 15s)

Fill 1
G|------------9----------------------|
D|-----------------------------------|
A|7~---5~--6-7~---5~-----------------|
E|-----------------------------------|

Fill 2
G|---9--9----7-------------------------|
D|-------------------------------------|
A|777-77--555-555667-------------------|
E|-------------------------------------| x8

Pre Chorus
G|-----------------------------------------------------------|
D|-----------------------------------------------------------|
A|-----------------------------------------------------------|
E|3~-------5~-------7~?10~--12-12-12-12-12-12-12-12----------|

Chorus
G|----------------------------------------|
D|----------------------------------------|
A|----------------------------------------|
E|3(x16)-5(x16)-7(x8)-10(x8)-12(x16)------| x4

Verse/Intro
G|--------------------------------------------------|
D|--------------------------------------------------|
A|--------------------------------------------------|
E|77-7777-77-7777-1010-10101010-1515-15151515-------| x4
(10s and 15s)

Finish on
G|---
D|---
A|---
E|-7-

guest
You may want to rate the tab now too:
select rating
Wanna post a correction for this tab? Suggest correction