Oops, an error
Loading. Please wait.

Your Eyes bass

6,882 views 9 this week
no commentswrite comment
1 2 3 4 5
x 4
add to favorites
×
Save as Personal and add changes to this tab that will be seen only by you. Learn more ›
×
You can save this tab as Personal to edit and correct it or add notes. All changes will be seen only by you. Learn more »
launch autoscroll
font size
0
reset
guitar tuner
edit
Autoscroll
slow
fast
+/-
esc
set tempo
stop
Author
Difficulty
intermediate
I dont mind taking requests for bass tabs and will try my best to get 
them accurate, especially if the song is good and worth doing!
Just leave a message on my profile wall.

-------------------------------------------------------------------------------
                        Your Eyes - Bombay Bicycle Club
-------------------------------------------------------------------------------

Tabbed By : Callum Urquhart 

Tuning: Standard

Intro/Verse 1 X 3

G|-----9-----9-----9-----9-----9-----9-----6-----6---------------------------|
D|---9-----9-----9-----9-----9-----9-----6---4-6-----------------------------|
A|-7-----7-----7-----7-----7-----7-----4-------------------------------------|
E|---------------------------------------------------------------------------|

G|-----6-----6-----6-----6-----6-----6-----4-----4---------------------------|
D|---9---7-9-----9---7-9-----9---7-9-----6---4-6-----------------------------|
A|-7-----------7-----------7-----------4-------------------------------------|
E|---------------------------------------------------------------------------|

Chorus

G|---------------------------------------------------------------------------|
D|-4>7-7-7-7-7-7-7-4-4-4-4-4-4-4---------------4-4-4-4-4-4-4-4---------------|
A|-------------------------------0-0-0-0-0-0-0-------------------------------|
E|---------------------------------------------------------------------------|

G|-----9-----9-----9-----9-----9-----9-----9-----9---------------------------|
D|---9-----9-----9-----9-----9-----9-----9-----9-----------------------------|
A|-7-----7-----7-----7-----7-----7-----7-----7-------------------------------|
E|---------------------------------------------------------------------------|

G|---------------------------------------------------------------------------|
D|-4>7-7-7-7-7-7-7-4-4-4-4-4-4-4---------------4-4-4-4-4-4-4-4---------------|
A|-------------------------------0-0-0-0-0-0-0-------------------------------|
E|---------------------------------------------------------------------------|

Verse 2

G|-----6-9---6-----6-----6-----6-----6-----6-----6---------------------------|
D|---9-----9-----9-----9-----9-----9-----9-----9-----------------------------|
A|-7-----------9-----9-----0-----0-----0-----0-------------------------------|
E|---------------------------------------------------------------------------|

G|-----6-9---6-----6-----6-----6-----6-7-6---7-6-----------------------------|
D|---9-----9-----9-----9-----9-----9-------9-----9---------------------------|
A|-7-----------9-----9-----0-----0-------------------------------------------|
E|---------------------------------------------------------------------------|


G|-----6-9---6-----6-----6-----6-----6-----6-----6---------------------------|
D|---9-----9-----9-----9-----9-----9-----9-----9-----------------------------|
A|-7-----------9-----9-----0-----0-----0-----0-------------------------------|
E|---------------------------------------------------------------------------|

G|-----6-9---6-----6-----6-----6-----6-7-6---7-6-----------------------------|
D|---9-----9-----9-----9-----9-----9-------9-----9---------------------------|
A|-7-----------9-----9-----0-----0-------------------------------------------|
E|---------------------------------------------------------------------------|


G|-----6-9---6-----6-----6-----6-----6-----6-----6---------------------------|
D|---9-----9-----9-----9-----9-----9-----9-----9-----------------------------|
A|-7-----------9-----9-----0-----0-----0-----0-------------------------------|
E|---------------------------------------------------------------------------|

G|-----6-9---6-----6-----6---------------------------------------------------|
D|---9-----9-----9-----9---9-----------------4-4-4-4-4-4-4-4-----------------|
A|-7-----------9-----9-------0-0-0-0-0-0-0-0---------------------------------|
E|---------------------------------------------------------------------------|
                            'Coming back...'

Verse 3 X 3

G|-----9-----9-----9-----9-----9-----9-----6-----6---------------------------|
D|---9-----9-----9-----9-----9-----9-----6---4-6-----------------------------|
A|-7-----7-----7-----7-----7-----7-----4-------------------------------------|
E|---------------------------------------------------------------------------|

G|-----6-----6-----6-----6-----6-----6-----4-----4---------------------------|
D|---9---7-9-----9---7-9-----9---7-9-----6---4-6-----------------------------|
A|-7-----------7-----------7-----------4-------------------------------------|
E|---------------------------------------------------------------------------|

Chorus

G|---------------------------------------------------------------------------|
D|-4>7-7-7-7-7-7-7-4-4-4-4-4-4-4---------------4-4-4-4-4-4-4-4---------------|
A|-------------------------------0-0-0-0-0-0-0-------------------------------|
E|---------------------------------------------------------------------------|

G|-----9-----9-----9-----9-----9-----9-----9-----9---------------------------|
D|---9-----9-----9-----9-----9-----9-----9-----9-----------------------------|
A|-7-----7-----7-----7-----7-----7-----7-----7-------------------------------|
E|---------------------------------------------------------------------------|

G|---------------------------------------------------------------------------|
D|-4>7-7-7-7-7-7-7-4-4-4-4-4-4-4---------------4-4-4-4-4-4-------------------|
A|-------------------------------0-0-0-0-0-0-0-------------0-4---------------|
E|---------------------------------------------------------------------------|

Verse 4

G|-----6-9---6-----6-----6-----6-----6-7-6---7-6-----------------------------|
D|---9-----9-----9-----9-----9-----9-------9-----9---------------------------|
A|-7-----------9-----9-----0-----0-------------------------------------------|
E|---------------------------------------------------------------------------|

G|-----6-9---6-----6-----6-----6-----6-----6-----6---------------------------|
D|---9-----9-----9-----9-----9-----9-----9-----9-----------------------------|
A|-7-----------9-----9-----0-----0-----0-----0-------------------------------|
E|---------------------------------------------------------------------------|

G|-----6-9---6-----6-----6-----6-----6-7-6---7-6-----------------------------|
D|---9-----9-----9-----9-----9-----9-------9-----9---------------------------|
A|-7-----------9-----9-----0-----0-------------------------------------------|
E|---------------------------------------------------------------------------|

G|-----6-9---6-----6-----6-----6-----6-----6-----6---------------------------|
D|---9-----9-----9-----9-----9-----9-----9-----9-----------------------------|
A|-7-----------9-----9-----0-----0-----0-----0-------------------------------|
E|---------------------------------------------------------------------------|

G|-----6-9---6-----6-----6---------------------------------------------------|
D|---9-----9-----9-----9---9-----------------4-4-4-4-4-4-4-4-----------------|
A|-7-----------9-----9-------0-0-0-0-0-0-0-0---------------------------------|
E|---------------------------------------------------------------------------|
                            'Coming back...'
G|---------------------------------------------------------------------------|
D|-----------------4-4-4-4-4-4-4-4-------------------------------------------|
A|-0-0-0-0-0-0-0-0-----------------------------------------------------------|
E|---------------------------------------------------------------------------|
  'Coming back...'

'Your Eyes' Part

G|---------------------------------------------------------------------------|
D|---------------------------------------------------------------------------|
A|-/2--2--2-2-2/5--5-5-5--5-5\0--0--0-0-0-0--0-0-0--0-0-0--------------------|
E|---------------------------------------------------------------------------|

Repeat until about 4:53

End X 4

G|---------------------------------------------------------------------------|
D|---------------------------------------------------------------------------|
A|-2>----------/5>-----------\0>---------------------------------------------|
E|---------------------------------------------------------------------------|


| >  hold note
| /  slide up
| \  slide down
| h  hammer-on
| p  pull-off
| ~  vibrato
| +  harmonic
| x  Mute note
===============================================================================

            
            
Suggest correction
Creating personal tab
Creating personal tab
You can edit any tab online and save it as your Personal.

You can edit, replace or remove any tab part or add personal notes – all changes will be seen only by you.

Personal tabs can be accessed anytime from any device, even offline.
Learn more »
comments
print report bad tab
guest
You may want to rate the tab now too:
select rating
Wanna post a correction for this tab? Suggest correction