Oops, an error
Loading. Please wait.

Blindsided Tab

version 2
version 2

Whole song

Interactive

Video

12,908 views 51 this week
2 commentsread comments
1 2 3 4 5
x 12
add to favorites
launch autoscroll
font size
0
reset
how to read this tab
guitar tuner
×
Best way to learn
"Blindsided"
Autoscroll
slow
fast
+/-
esc
set tempo
stop
Author
Capo
  follow
3rd fret
Artist: Bon Iver
Song: Blindsided
standard tuning
capo 3rd fret

(This is a more detailed version than the other tabs on here.
Different verse rhythm to the others.
From listening to the recording, 
I'm %99 sure that the guitar tune follows the vocal tune, 
also,I'm pretty sure the last chord in the chorus is a C/G,
numbers in brackets are either really quiet)

[Intro]
e|-----------------|-----------------|-----------------|-----------------|
B|-----------------|-----------------|-----------------|-----------------|
G|-----------------|-----------0---0-|-----------------|-----------0---0-|
D|-----------------|-----------------|-----------------|-----------------|
A|-----------------|-----------------|-----------------|-----------------|
E|-3---3---3---3---|-3---3---3---3---|-3---3---3---3---|-3---3---3---3---|

e|-----------------|-----------------|-----------------|-----------------|
B|-----------------|-----------------|-----------------|-----------------|
G|-----------------|----------(0)-(0)|----------(0)-(0)|-----------------|
D|-----------------|-----------------|-----------------|-----------------|
A|-----------------|-----------------|-----------------|-----------------|
E|-3---3---3---3---|-3---3---3---3---|-3---3---3---3---|-3---3---3---3---|

[verse 1/2]
e|-----------------|-----------------|-----------------|-----------------|
B|-------0---------|-----------------|-----------------|-------0---------|
G|-2---------------|-----------------|-----------------|-----------2p0-2-|
D|-----------------|-----------------|-----------------|-----------------|
A|-----------------|-----------------|-----------------|-----------------|
E|-3---3---3---3---|-3---3---3---3---|-3---3---3---3---|-3---3---3---3---|
1. bike  down                                                down to the down
2. peek  in                                                    in--to the peer

e|-----------------|-----------------|-----------------|-----------------|
B|-----------------|-------0---------|-----------------|-------0---------|
G|-------0---------|-----------2p0-2-|-------0---------|-----------2p0-2-|
D|-----------------|-----------------|-----------------|-----------------|
A|-----------------|-----------------|-----------------|-----------------|
E|-3---3---3---3---|-3---3---3---3---|-0---0---0---0---|-0---0---0---0---|
        town           down to the lock     down            boards nails lie
        in          I’m not realy like     this         I’m probably plight-
                                            
e|-----------------|-----------------|
B|-----------------|--------------(0)| *barely audable,
G|-------0---------|------(0)-(0)-(0)|  louder in verse 2
D|-----------------|------(0)-(0)----|  
A|-----------------|-----------------|
E|-3---3---3---3---|-3---3---3---3---|
      around            I crouch like a 
      -less               I cup the win-

[pre chorus]
e|^2---------------|-----------------|-----------------|-----------------|
B|^3---------------|-----------------|^3---------------|-----------------|
G|^0---------------|-----------------|^0---------------|-----------------|
D|-----------------|-----------------|^4---------------|-----------------|
A|^3---------------|-----------------|^5---------------|-----------------|
E|-----------------|-----------------|-----------------|-----------------|
1. crow                Contrasting the snow                        For the 
2.-dow                I’m crippled and slow                        For the 
3. flow               my feet melt the snow                        For the 
 
e|-----------------|-----------------|-----------------|-----------------|
B|-----------------|-----------------|-----------------|-----------------|
G|^0---------------|-----------------|^0---------------|-----------------|
D|^5---------------|-----------------|^0---------------|-----------------|
A|^5---------------|-----------------|^10--------------|-----------------|
E|^7---------------|-----------------|^8---------------|-----------------|
  agony                  I’d rather know                           ‘cause
  agony                  I’d rather know                           ‘cause
  irony                  I’d rather know                           ‘cause


e|-----------------|-----------------|-----------------|------------------|
B|-----------------|-----------------|-------0---------|------------------|
G|-------0---------|-----------------|-------2---------|---------------(0)|
D|-0---------------|-----------------|-0---------------|---------------(0)|
A|-----------------|-----------------|-----------------|------------------|
E|-3---3---3---3---|-3---3---3---3---|-2---2---2---2---|-2---2---2---2----|
   blind-ed                            I     am                       blind-

e|-----------------|-----------------|-----------------|-----------------|
B|-----------------|-----------------|-----------------|-----------------|
G|-------0---------|-----------------|-----------------|---------------0-|
D|-0---------------|-----------------|-----------------|-----------------|
A|-3---------------|-----------------|-----------------|-----------------|
E|-3---3---3---3---|-3---3---3---3---|-3---3---3---3---|-3---3---3---3---|
   -sided

[intro 2]
e|-----------------|-----------------|-----------------|-----------------|
B|-----------------|-----------------|-----------------|-----------------|
G|-----------------|---------------0-|-----------------|-----------------|
D|-----------------|-----------------|---------------0-|-----------------|
A|-----------------|-----------------|-----------------|-----------------|
E|-3---3---3---3---|-3---3---3---3---|-3---3---3---3---|-3---3---3---3---|
   
(verse 2)

(pre chorus 2)


e||-----------------|-----------------|-----------------|------------------|
B||-----------------|-----------------|-------0---------|------------------|
G||-------0---------|-----------------|-------2---------|---------------(0)|
D||-0---------------|-----------------|-0---------------|---------------(0)|
A||-----------------|-----------------|-----------------|------------------|
E||-3---3---3---3---|-3---3---3---3---|-2---2---2---2---|-2---2---2---2----|
   blind-ed                            I     am                       blind-

e|-----------------|-----------------|-----------------|-----------------|
B|-------1---------|-----------------|-------1---------|-----------------|
G|-------0---------|---------------0-|-------0---------|-----------0---0-|
D|-0-------------0-|---------------0-|-----------------|-----------0---0-|
A|-3---------------|-----------------|-----------------|-----------------|
E|-3---3---3---3---|-3---3---3---3---|-3---3---3---3---|-3---3---3---3---|
   -sided

 [Intro 3]
e|-----------------|-----------------|-----------------|-----------------|
B|-----------------|-----------------|-----------------|-----------------|
G|---------------0-|-----------0---0-|-----------0---0-|----------(0)-(0)|
D|---------------0-|-----------0---0-|-----------0---0-|----------(0)-(0)|
A|-----------------|-----------------|-----------------|-----------------|
E|-3---3---3---3---|-3---3---3---3---|-3---3---3---3---|-3---3---3---3---|

                      ________________  _________________
 [bridge]            |1,2,3            |4.
     v                       v                 ^   ^ v ^
e|---0---------------|-------0--------||-------0---0-0-0-|
B|o--0---------------|-------3-------o||-------3---3-3-3-|
G|---0---------------|-------0--------||-------0---0-0-0-|
D|---2---------------|-------4--------||-------4---4-4-4-|
A|o--3---------------|-------0-------o||-------0---0-0-0-|
E|-------------------|----------------||-----------------|
     1 + 2 + 3 + 4 +   1 + 2 + 3 + 4 +   1 + 2 + 3 + 4 +  
    would you really rush out (for me know)

      v   v   v ^ v ^     ^ v ^   ^ v ^  x7 v   v   v ^ v ^ 
e|---0---0---0-0-0-0-|---0-0-0---0-0-0---|-0---0---0-0-0-0-|-----------------|
B|o--0---0---0-0-0-0-|---0-0-3---3-3-3--o|-0---0---0-0-0-0-|-----------------|
G|---0---0---0-0-0-0-|---0-0-0---0-0-0---|-0---0---0-0-0-0-|-----------------|
D|---2---2---2-2-2-2-|---2-2-4---4-4-4---|-2---2---2-2-2-2-|-----------------|
A|o--3---3---3-3-3-3-|---3-3-0---0-0-0--o|-3---3---3-3-3-3-|-----------------|
E|-------------------|-------------------|-----------------|-----------------|
     1 + 2 + 3 + 4 +   1 + 2 + 3 + 4 +     1 + 2 + 3 + 4 +  
     would you really rush out (for me know)

[verse 3]
e|-----------------|-----------------|-----------------|-----------------|
B|-------0---------|-----------------|-----------------|-------0---------|
G|-2---------------|-----------------|-----------------|-----------2p0-2-|
D|-----------------|-----------------|-----------------|-----------------|
A|-----------------|-----------------|-----------------|-----------------|
E|-3---3---3---3---|-3---3---3---3---|-3---3---3---3---|-3---3---3---3---|
  taught line                                                down to the shore

e|-----------------|-----------------|-----------------|-----------------|
B|-----------------|-----------------|-----------------|-------0---------|
G|-------0---------|---------------0-|-----------------|-----------2p0-2-|
D|-----------------|-----------------|-----------------|-----------------|
A|-----------------|-----------------|-----------------|-----------------|
E|-3---3---3---3---|-3---3---3---3---|-3---3---3---3---|-3---3---3---3---|
        line                                             the end of a blood
                                   
e|-----------------|-----------------|-----------------|-----------------|
B|-----------------|-----------------|---------------3-|-------0---------|
G|-------0---------|-----------------|-----------0-----|-----------2p0-2-|
D|-----------------|---------------4-|-------4---------|-----------------|
A|-----------------|-----------------|-----------------|-----------------|
E|-0---0---0---0---|-0---0---0---0---|-0---0---0---0---|-0---0---0---0---|
        line                                             the moon is a cold

e|-----------------|-----------------|-----------------|-----------------|
B|-----------------|-----------------|-----------------|-----------------|
G|-------0---------|-----------0---0-|-----------0---0-|-----------------|
D|-----------------|---------------0-|-----------------|-----------------|
A|-----------------|-----------------|-----------------|-----------------|
E|-3---3---3---3---|-3---3---3---3---|-3---3---3---3---|-3---------------|
        light                                        there’s a pull to the 

(pre chorus 3)


e|-----------------|-----------------|-----------------|------------------|
B|-----------------|-----------------|------(0)--------|------------------|
G|-------0---------|-----------------|-------2---------|------------------|
D|-0---------------|--------------(0)|-0---------------|-----------0---0--|
A|-----------------|-----------------|-----------------|------------------|
E|-3---3---3---3---|-3---3---3---3---|-2---2---2---2---|-2---2---2---2----|
  blin--ded                           I     was                   blind sid-

e|-----------------|-----------------|-----------------|-----------------|
B|-----------------|-----------------|-----------------|-----------------|
G|-------0---------|-----------------|-----------0---0-|----------(0)----|
D|-0---------------|-----------0---0-|-----------------|-----------------|
A|-3---3---3---3---|-3---3---3---3---|-3---3---3---3---|-3---3---3---3---|
E|(3)-(3)-(3)-(3)--|(3)-(3)-(3)-(3)--|(3)-(3)-(3)-(3)--|(3)-(3)-(3)-(3)--|
   -ed

e|-----------------|-----------------|-----------------|------------------|
B|-----------------|-----------------|-------0-------0-|------------------|
G|-------0---------|-----------------|-------2---------|------------------|
D|-0---------------|----------(0)-(0)|-0---------------|-----------0---0--|
A|-----------------|-----------------|-----------------|------------------|
E|-3---3---3---3---|-3---3---3---3---|-2---2---2---2---|-2---2---2---2----|
   blin--ded                           I     was                   blind sid-

         thumb strum:    v   v ^ v ^   v   v   v ^ v ^   v   v   v ^ v ^ 
e|-----------------|-----------------|-----------------|-----------------|
B|-----------------|-----------------|-----------------|-----------------| 
G|-------0---------|-----------------|-----------------|-----------------|
D|-0---------------|-----0---0-0-0-0-|-0---0---0-0-0-0-|-0---0---0-0-0-0-|
A|-3---3---3---3---|-3---3---3-3-3-3-|-3---3---3-3-3-3-|-3---3---3-3-3-3-|
E|-3---------------|-----3---3-3-3-3-|-3---3---3-3-3-3-|-3---3---3-3-3-3-|
                    1 + 2 + 3 + 4 +   1 + 2 + 3 + 4 +   1 + 2 + 3 + 4 + 
   -ed
 
   v   v ^ v   v     v   v   v   v     v   v ^ v   v     v   v   v ^ v ^    v   
e|-----------------|-----------------|-----------------|------------------|-0----------------|
B|-------0---------|-----------------|-------0-----0---|------------------|-1----------------|
G|-------2---------|-----------------|-------2---------|------------------|-0----------------|
D|-0---------------|-----------------|-0---------------|----------(0)-(0)-|-2----------------|
A|-----------------|-----------------|-----------------|------------------|-3----------------|
E|-3---3---3---3---|-3---3---3---3---|-2---2---2---2---|-2---2---2---2----|-3----------------|
   blin--ded                           I     was                   blind sided


************************************

| (n)  Ghost note
| p    Pull-off

************************************
Suggest correction
comments
print report bad tab
2 comments total.
+2 reply
blint123 86 Sep 24, 2014 03:43 AM

Justin is that You?
Great tab man!

0 reply
rianismail131093 10 Nov 15, 2015 09:02 AM

you should check out the video when they play this son on Myspace trasmission man, the solo guitar is sick

guest
You may want to rate the tab now too:
select rating
Wanna post a correction for this tab? Suggest correction