Oops, an error
Loading. Please wait.

For Emma Forever Ago album chords

4,591 views 93 this week
no commentswrite comment
1 2 3 4 5
x 12
add to favorites
×
Save as Personal and add changes to this tab that will be seen only by you. Learn more ›
×
You can save this tab as Personal to edit and correct it or add notes. All changes will be seen only by you. Learn more »
launch autoscroll
font size
0
reset
transpose
0
reset
simplify chords
display chords
guitar tuner
edit
Autoscroll
slow
fast
+/-
esc
set tempo
stop
Author
Strumming
There is no strumming pattern for this song yet. and get +5 IQ
The entire album. Tried to find the most accurate versions, edit them and compile them all here.
A few of the songs have an alternate (open, mostly) tuning but just following the chords while in standard
tuning should sound alright.

Most of these are based on the chords but songs like Team and blindsided are just easier to understand in a
tabbed version.

Enjoy.


1. Flume

Thank's to whoever made ver. 4. 
That version has the most correct chords as far as I'm aware, 
I tabbed out the small fills as they were missing. 


[Intro]

C   Em   Am   Em

(on the Am)
e|------------------------|
B|--1--------1--------1---|
G|--2---0h2--2--------2---|
D|--2--------2---0h2--2---|
A|--0--------0--------0---|
E|------------------------|


[Verse 1]

C                    Em
I am my mother's only one
             G
It's enough

C                       Em
I wear my garment so it shows
G
Now you know


[Chorus]

F               Am
Only love is all maroon
F                  Am     Am/G
Gluey feathers on a flume
F                         Am     C
Sky is womb and she's the moon

e|------------------|
B|--1p0-------------|
G|------------------|
D|------------------|
A|------------------|
E|------------------|


[Instrumental]

Em Am Em


[Verse 2]

C                            Em        G
I am my mother on the wall, with us all
C                           Em
I move in water, shore to shore;
G
Nothing's more


[Chorus]

F                   Am    C
Only love is all maroon
F                           Am   C/B
Lapping lakes like leery loons
F
Leaving rope burns --
         Am     C
Reddish ruse


[Instrumental]

Em Am Em


[Chorus]

F                 Am    C
Only love is all maroon
F                     Am       C/B
Gluey feathers on a flume
F                          Am
Sky is womb and she's the moon


[Outro]

C    F   Em


2. Lump Sum

Tuning: DADF#AD
Thanks to red_badge for the chords 
(edited this version a bit too)

Most chords are strummed three times, for four bars

(Verse Chords)
 
     A5   F#m7   Esus4    E
e|---------------------------|
B|---------------------------|
G|---3-----3-------3------2--|
D|---2-----2-------2------2--|
A|---0-----0-------0------0--|
E|---x-----4-------2------2--|


(Chorus Chords)

    Dsus  Asus4  F#sus2  E5   D/A
e|--------------------------------|
B|--------------------------------|
G|---7-----8-------7--------------|
D|---7-----7-------6------2----0--|
A|---0-----0-------4------2----0--|
E|---0-----0-------4------2----0--|


[Intro]

A5 F#m7 Esus4 (pause)


[Verse 1]

A5           F#m7          Esus4      E
Sold my cold knot, a heavy stone
A5                F#m7          Esus4
Sold my red horse for a venture home
                 E
To vanish on the bow 
Settling slow


Dsus      Asus
Fit it all, fit it in the doldrums
F#sus2
Or so the story goes
Dsus
Color the era
Asus
Film it as historical


[Interlude]

E5 (once)   D/A      
aaaaaaaaaah aaaaah


A5            F#m7         Esus4        E
My mile could not pump the plumb
A5           F#m7          Esus4
In my arbor 'till my ardor trumped
E
Every inner inertia
Lump sum
Dsus       Asus
All at once rushing from the sump-pump
F#sus2
Or so the story goes
Dsus
Balance we won't know
Asus
We will see when it gets warm 
E5 (once)   D/A      
aaaaaaaaaah aaaaah

Keep strumming D/A for a few bars, prevent any ringing with your right hand.


3. Skinny Love

Thanks to carrottopj12, fucking amazing tab, only added one little fill.


C - G - E - G - C - C


(Basic chord structures)

e|---0----0---0-----0----|
B|---0----0---0-----0----|
G|---2----5---0-----5----|
D|---0----0---0-----7----|
A|---2----5---0-----7----|
E|---x----x---x-----x----|
    Am   C    C/G  G/B

(Chorus chords)

e|---0----0-----0--|
B|---0----0-----0--|
G|---0----0-----0--|
D|---8----3-----1--|
A|---9----4-----2--|
E|---x----x-----x--|
    C    G/B    F/A


[cool high note doohickeys]
these are played after the C/G's

e|---2--4-2-0--2--4-2-0-----------7-9-7-4-2-4-2-0-----5-5-5-4-|
B|---2--4-2-0--2--4-2-0-----------7-9-7-4-2-4-2-0-----5-5-5-4-|
G|------------------------------------------------------------|
D|------------------------------------------------------------|
A|------------------------------------------------------------|
E|------------------------------------------------------------|

(the chords don't line up EXACTLY correctly but it's pretty close)


[Verse 1]

Am             C               C/G
Come on skinny love just last the year
Am            C                  C/G
Pour a little salt we were never here
        Am            C            C/G
My, my, my, my, my, my, my, my
            G/B                           Am     C      C/G
Staring at the sink of blood and crushed veneer

e|-----------------|
B|-----------------|
G|-----------------|
D|----3p0----------|
A|--------7h9p7--0-|
E|---------------7-|


  Am        C              C/G
I tell my love to wreck it all
   Am               C              C/G
Cut out all the ropes and let me fall
       Am             C             C/G
My, my, my, my, my, my, my, my
           G/B                         Am     C     C/G
Right in the moment this order's tall


[Chorus]

     C
I told you to be patient
 G/B            F/A
I told you to be fine
      C
I told you to be balanced
 G/B              F/A
I told you to be kind
           C
In the morning I'll be with you
           G/B              F/A
But it will be a different "kind"
          C
I'll be holding all the tickets
             G/B           F/A
And you'll be owning all the fines


[Verse 2]

  Am            C              C/G
Come on skinny love what happened here
Am              C            C/G
Suckle on the hope in lite brassiere
      Am             C          C/G
My, my, my, my, my, my, my, my
         G/B                           Am      C      C/G
Sullen load is full; so slow on the split


[Chorus]

     C
I told you to be patient
  G/B        F/A
I told you to be fine
      C
I told you to be balanced
 G/B            F/A
I told you to be kind
          C
Now all your love is wasted?
   G/B               F/A
Then who the hell was I?
             C
Now I'm breaking at the britches
        G/B             F/A
And at the end of all your lines


[Bridge]

C                                   G/B
 Who will love you?
F/A
 Who will fight?
C            G/B       F/A
 Who will fall far behind?


[Outro]

Am  C  C/G 
Am  C  C/G 
Am  C  C/G 
G/B Am C


4. The Wolves (Act 1 & 2)

Thanks to Earthmaker 451 for finding the tuning and chords

Tuning: DFCDAc


      F     Dm      C 
e|----0------0------0-----|
B|----0------0------0-----|
G|----0------0------0-----|
D|----0------9------7-----|
A|----0------9------7-----|
E|----3------0------X-----|

      Bb     Dm     C 
e|----0------0------0-----|
B|----0------0------0-----|
G|----0------0------0-----|
D|----5------9------7-----|
A|----5------9------7-----|
E|----0------0------X-----|


[Verse 1]

F
Someday my pain
F            Dm        C
Someday my pain will mark you
F
Harness your blame
F               Dm         C
Harness your blame and walk through

Bb                      Dm   C
With the wild wolves around you
Bb                     Dm   C
In the morning, I'll call you
Bb               Dm   C
Send it farther on


[Chorus]

F
Solace my game
F           Dm          C
Solace my game, it stars you
F
Swing wide your crane
F                   Dm         C
Swing wide your crane and run me through


[Verse 2]

Bb                   Dm    C
And the story's all over you
Bb                    Dm   C
In the morning i'll call you
Bb                 Dm    C
Can't you find a clue
Bb                      Dm        C
When your eyes are all painted Sinatra blue


[Bridge]

Bb                     Dm     C
What might have been lost 
(Don't bother me)
14 times


[Outro]

Bb Dm C 
Aaaah
Bb Dm C 
Aaaah

F
Someday my pain
F           Dm    C
Someday my pain


5.Blindsided

Thank's to chinface for making the tab.

Capo 3.


[Intro]

e||-----------------|-----------------|-----------------|-----------------|
B||-----------------|-----------------|-----------------|-----------------|
G||-----------------|-----------0---0-|-----------------|-----------0---0-|
D||-----------------|-----------------|-----------------|-----------------|
A||-----------------|-----------------|-----------------|-----------------|
E||-3---3---3---3---|-3---3---3---3---|-3---3---3---3---|-3---3---3---3---|

e|-----------------|-----------------|-----------------|-----------------||
B|-----------------|-----------------|-----------------|-----------------||
G|-----------------|----------(0)-(0)|----------(0)-(0)|-----------------||
D|-----------------|-----------------|-----------------|-----------------||
A|-----------------|-----------------|-----------------|-----------------||
E|-3---3---3---3---|-3---3---3---3---|-3---3---3---3---|-3---3---3---3---||


[Verse 1,2]

e||-----------------|-----------------|-----------------|-----------------|
B||-------0---------|-----------------|-----------------|-------0---------|
G||-2---------------|-----------------|-----------------|-----------2p0-2-|
D||-----------------|-----------------|-----------------|-----------------|
A||-----------------|-----------------|-----------------|-----------------|
E||-3---3---3---3---|-3---3---3---3---|-3---3---3---3---|-3---3---3---3---|
1. bike  down                                                down to the down
2. peek  in                                                    in--to the peer

e|-----------------|-----------------|-----------------|-----------------|
B|-----------------|-------0---------|-----------------|-------0---------|
G|-------0---------|-----------2p0-2-|-------0---------|-----------2p0-2-|
D|-----------------|-----------------|-----------------|-----------------|
A|-----------------|-----------------|-----------------|-----------------|
E|-3---3---3---3---|-3---3---3---3---|-0---0---0---0---|-0---0---0---0---|
        town           down to the lock     down            boards nails lie
        in          I’m not realy like     this         I’m probably plight-
                                            
e|-----------------|-----------------||
B|-----------------|--------------(0)|| *barely audable,
G|-------0---------|------(0)-(0)-(0)||  louder in verse 2
D|-----------------|------(0)-(0)----||  
A|-----------------|-----------------||
E|-3---3---3---3---|-3---3---3---3---||
      around            I crouch like a 
      -less               I cup the win-


[Pre-Chorus]

e||^2---------------|-----------------|-----------------|-----------------|
B||^3---------------|-----------------|^3---------------|-----------------|
G||^0---------------|-----------------|^0---------------|-----------------|
D||-----------------|-----------------|^4---------------|-----------------|
A||^3---------------|-----------------|^5---------------|-----------------|
E||-----------------|-----------------|-----------------|-----------------|
1. crow                Contrasting the snow                        For the 
2.-dow                I’m crippled and slow                        For the 
3. flow               my feet melt the snow                        For the 
 
e|-----------------|-----------------|-----------------|-----------------||
B|-----------------|-----------------|-----------------|-----------------||
G|^0---------------|-----------------|^0---------------|-----------------||
D|^5---------------|-----------------|^0---------------|-----------------||
A|^5---------------|-----------------|^10--------------|-----------------||
E|^7---------------|-----------------|^8---------------|-----------------||
  agony                  I’d rather know                           ‘cause
  agony                  I’d rather know                           ‘cause
  irony                  I’d rather know                           ‘cause


[Chorus]

e||-----------------|-----------------|-----------------|------------------|
B||-----------------|-----------------|-------0---------|------------------|
G||-------0---------|-----------------|-------2---------|---------------(0)|
D||-0---------------|-----------------|-0---------------|---------------(0)|
A||-----------------|-----------------|-----------------|------------------|
E||-3---3---3---3---|-3---3---3---3---|-2---2---2---2---|-2---2---2---2----|
   blind-ed                            I     am                       blind-

e|-----------------|-----------------|-----------------|-----------------||
B|-----------------|-----------------|-----------------|-----------------||
G|-------0---------|-----------------|-----------------|---------------0-||
D|-0---------------|-----------------|-----------------|-----------------||
A|-3---------------|-----------------|-----------------|-----------------||
E|-3---3---3---3---|-3---3---3---3---|-3---3---3---3---|-3---3---3---3---||
   -sided


[Intro 2]

e||-----------------|-----------------|-----------------|-----------------|
B||-----------------|-----------------|-----------------|-----------------|
G||-----------------|---------------0-|-----------------|-----------------|
D||-----------------|-----------------|---------------0-|-----------------|
A||-----------------|-----------------|-----------------|-----------------|
E||-3---3---3---3---|-3---3---3---3---|-3---3---3---3---|-3---3---3---3---|
   

[Verse 2]


[Pre-Chorus 2]


[Chorus 2]

e||-----------------|-----------------|-----------------|------------------|
B||-----------------|-----------------|-------0---------|------------------|
G||-------0---------|-----------------|-------2---------|---------------(0)|
D||-0---------------|-----------------|-0---------------|---------------(0)|
A||-----------------|-----------------|-----------------|------------------|
E||-3---3---3---3---|-3---3---3---3---|-2---2---2---2---|-2---2---2---2----|
   blind-ed                            I     am                       blind-


e|-----------------|-----------------|-----------------|-----------------||
B|-------1---------|-----------------|-------1---------|-----------------||
G|-------0---------|---------------0-|-------0---------|-----------0---0-||
D|-0-------------0-|---------------0-|-----------------|-----------0---0-||
A|-3---------------|-----------------|-----------------|-----------------||
E|-3---3---3---3---|-3---3---3---3---|-3---3---3---3---|-3---3---3---3---||
   -sided


[Intro 3]

e||-----------------|-----------------|-----------------|-----------------|
B||-----------------|-----------------|-----------------|-----------------|
G||---------------0-|-----------0---0-|-----------0---0-|----------(0)-(0)|
D||---------------0-|-----------0---0-|-----------0---0-|----------(0)-(0)|
A||-----------------|-----------------|-----------------|-----------------|
E||-3---3---3---3---|-3---3---3---3---|-3---3---3---3---|-3---3---3---3---|


[Bridge]

                       ________________  _________________
                      |1,2,3            |4.
      v                       v                 ^   ^ v ^
e||---0---------------|-------0--------||-------0---0-0-0-|
B||o--0---------------|-------3-------o||-------3---3-3-3-|
G||---0---------------|-------0--------||-------0---0-0-0-|
D||---2---------------|-------4--------||-------4---4-4-4-|
A||o--3---------------|-------0-------o||-------0---0-0-0-|
E||-------------------|----------------||-----------------|
     1 + 2 + 3 + 4 +   1 + 2 + 3 + 4 +   1 + 2 + 3 + 4 +  
    would you really rush out (for me know)

      v   v   v ^ v ^     ^ v ^   ^ v ^  x7  v   v   v ^ v ^ 
e||---0---0---0-0-0-0-|---0-0-0---0-0-0---||-0---0---0-0-0-0-|-----------------|
B||o--0---0---0-0-0-0-|---0-0-3---3-3-3--o||-0---0---0-0-0-0-|-----------------|
G||---0---0---0-0-0-0-|---0-0-0---0-0-0---||-0---0---0-0-0-0-|-----------------|
D||---2---2---2-2-2-2-|---2-2-4---4-4-4---||-2---2---2-2-2-2-|-----------------|
A||o--3---3---3-3-3-3-|---3-3-0---0-0-0--o||-3---3---3-3-3-3-|-----------------|
E||-------------------|-------------------||-----------------|-----------------|
     1 + 2 + 3 + 4 +   1 + 2 + 3 + 4 +      1 + 2 + 3 + 4 +  
     would you really rush out (for me know)


[Verse 3]

e||-----------------|-----------------|-----------------|-----------------|
B||-------0---------|-----------------|-----------------|-------0---------|
G||-2---------------|-----------------|-----------------|-----------2p0-2-|
D||-----------------|-----------------|-----------------|-----------------|
A||-----------------|-----------------|-----------------|-----------------|
E||-3---3---3---3---|-3---3---3---3---|-3---3---3---3---|-3---3---3---3---|
   taught line                                                down to the shore

e|-----------------|-----------------|-----------------|-----------------|
B|-----------------|-----------------|-----------------|-------0---------|
G|-------0---------|---------------0-|-----------------|-----------2p0-2-|
D|-----------------|-----------------|-----------------|-----------------|
A|-----------------|-----------------|-----------------|-----------------|
E|-3---3---3---3---|-3---3---3---3---|-3---3---3---3---|-3---3---3---3---|
        line                                             the end of a blood
                                   
e|-----------------|-----------------|-----------------|-----------------|
B|-----------------|-----------------|---------------3-|-------0---------|
G|-------0---------|-----------------|-----------0-----|-----------2p0-2-|
D|-----------------|---------------4-|-------4---------|-----------------|
A|-----------------|-----------------|-----------------|-----------------|
E|-0---0---0---0---|-0---0---0---0---|-0---0---0---0---|-0---0---0---0---|
        line                                             the moon is a cold

e|-----------------|-----------------|-----------------|-----------------|
B|-----------------|-----------------|-----------------|-----------------|
G|-------0---------|-----------0---0-|-----------0---0-|-----------------|
D|-----------------|---------------0-|-----------------|-----------------|
A|-----------------|-----------------|-----------------|-----------------|
E|-3---3---3---3---|-3---3---3---3---|-3---3---3---3---|-3---------------|
        light                                        there’s a pull to the 


[Pre-Chorus 3]


[Chorus 3]

e||-----------------|-----------------|-----------------|------------------|
B||-----------------|-----------------|------(0)--------|------------------|
G||-------0---------|-----------------|-------2---------|------------------|
D||-0---------------|--------------(0)|-0---------------|-----------0---0--|
A||-----------------|-----------------|-----------------|------------------|
E||-3---3---3---3---|-3---3---3---3---|-2---2---2---2---|-2---2---2---2----|
   blin--ded                           I     was                   blind sid-

e|-----------------|-----------------|-----------------|-----------------|
B|-----------------|-----------------|-----------------|-----------------|
G|-------0---------|-----------------|-----------0---0-|----------(0)----|
D|-0---------------|-----------0---0-|-----------------|-----------------|
A|-3---3---3---3---|-3---3---3---3---|-3---3---3---3---|-3---3---3---3---|
E|(3)-(3)-(3)-(3)--|(3)-(3)-(3)-(3)--|(3)-(3)-(3)-(3)--|(3)-(3)-(3)-(3)--|
   -ed

e|-----------------|-----------------|-----------------|------------------|
B|-----------------|-----------------|-------0-------0-|------------------|
G|-------0---------|-----------------|-------2---------|------------------|
D|-0---------------|----------(0)-(0)|-0---------------|-----------0---0--|
A|-----------------|-----------------|-----------------|------------------|
E|-3---3---3---3---|-3---3---3---3---|-2---2---2---2---|-2---2---2---2----|
   blin--ded                           I     was                   blind sid-

         thumb strum:    v   v ^ v ^   v   v   v ^ v ^   v   v   v ^ v ^ 
e|-----------------|-----------------|-----------------|-----------------|
B|-----------------|-----------------|-----------------|-----------------| 
G|-------0---------|-----------------|-----------------|-----------------|
D|-0---------------|-----0---0-0-0-0-|-0---0---0-0-0-0-|-0---0---0-0-0-0-|
A|-3---3---3---3---|-3---3---3-3-3-3-|-3---3---3-3-3-3-|-3---3---3-3-3-3-|
E|-3---------------|-----3---3-3-3-3-|-3---3---3-3-3-3-|-3---3---3-3-3-3-|
                    1 + 2 + 3 + 4 +   1 + 2 + 3 + 4 +   1 + 2 + 3 + 4 + 
   -ed
 
   v   v ^ v   v     v   v   v   v     v   v ^ v   v     v   v   v ^ v ^    v   
e|-----------------|-----------------|-----------------|------------------|-0----------------||
B|-------0---------|-----------------|-------0-----0---|------------------|-1----------------||
G|-------2---------|-----------------|-------2---------|------------------|-0----------------||
D|-0---------------|-----------------|-0---------------|----------(0)-(0)-|-2----------------||
A|-----------------|-----------------|-----------------|------------------|-3----------------||
E|-3---3---3---3---|-3---3---3---3---|-2---2---2---2---|-2---2---2---2----|-3----------------||


6.Creature Fear

Thanks to whever made the tab on songsterr.

I like playing it in drop D as it helps transition into Team but you don't have to do that.
Capo 2.


     C  Am7  G   Am  F   D7  E7
e|---0---0-------0---0-------0---|
B|---1---1---0---1---1---3---0---|
G|---0---0---0---2---2---2---1---|
D|---2---2---5---2---3---0---0---|
A|---3---0---5---0---3---x---2---|
E|-----------5-----------4---2---|


     *riff*
     G                 F
e|-------------------------------------------------|
B|-------------0------1p0--------------------------|
G|------0h2h3-------------2p0----0-----------------|
D|----------------------------2----2p0-------------|
A|---5---------------------------------3-----------|
E|---5-------------------------------------3-3-3-5-|

      C
I was full by your count

      Am
I was lost but your fool

*riff*G
Was a long visit wrong?

*riff*F
Say you are the only.


G         Am        F
So many foreign worlds,    (so relatively fucked)

D7       G       E7       Am          F
So ready for us, so ready for us, the creature fear


[Verse 2]

      C
I was teased by your blouse

       Am
Spit out by your mouth

*riff*G
I was loud by your lowered

*riff*F
Seminary sold

     C
Tear on, tail on

     Am
Take all on the wind on

*riff*G
Soft bloody nose
*riff*F
Sign another floor...


[Chorus 2]

G         Am      F
So many territories (ready to reform)
D7           G        E7           Am           F
Don't let it form us, don't let it form us, the creature fear
G         Am       F
So did he foil 'is own?  (Is he ready to reform?)
D7      G       E7      Am          F
So many torahs, so many for us, the creature fear.


7. Team

Drop D tuning (DADGBe)

---0----0-0-7-4---4-9-7--12-9--9--7-9--|

Basically repeated throughout the entire song


8. For Emma

Pretty loose standard tuning on this one.
just slightly below standard but it absolutely works in both standard and Eb tuning


     C/G    F    Em
e|----0-----0----0---|
B|----1-----1----0---|
G|----0-----2----0---|
D|----2-----3----2---|
A|----3-----3----2---|
E|----3----------0---|


[Intro]

C/G Em F

C/G Em F

Em  C/G
(So apropos:

Em                  C/G
Saw death on a sunny snow)

           F
"For every life..."

           C/G
"Forgo the parable."

          F
"Seek the light."

                 C/G
"...My knees are cold."
Em                                             F       
(Running home, running home, running home, running home...)

C/G Em
           C/G     
"Go find another lover;

Em                       C/G
To bring home, to string along!"

               F
"With all your lies

                  C/G
You're still very lovable."

              F
"I toured the light; 

        C/G
so many foreign roads 

Em                  C/G
for Emma, forever ago."

C/G (for a pretty long time)

C/G Em F

F    C/G
  mmhmmhm

F    C/G
  mmhmmhm

Em  C/G

F   C/G

F   C/G


9. Re:stacks

Thanks to tlecky for finding the tuning and chords.
Tuning: DADF#AD

Capo 6.

it's almost impossible to have this song make sense in a chord so i'll just show the lyrics and the patterns
listen to the rhythm and timing of the track and you'll get it in a couple of tries.


Chords:

    Verse:                Chorus:               Cрorus Riff:
    Ebsus4   Ab    Fm7    Eb5   F5              C#maj7 iguess
e|---0--------------0-----------------------------------------------------|
B|---0-------0------0------0-----0----------------------------------------|
G|---3-------0------1------x-----0----------0--0--0--0-----0--0--0--0-----|
D|---2-------0------0------2-----x----------4--5--4--0-----4--5--4--0-----|
A|---0--------------2------0-----2----------------------------------------|
E|-----------0---------------------------5--5--5--5--5--5--5--5--5--5-----|


[Verse 1]

    Ebsus4      Ab        Fm7        F5         Fm7
e|----0----------------------0----------0----------0---------------------|
B|----0-----------0----------0----------0----------0---------------------|
G|----3-----------0----------1----------1----------1---------------------|
D|----2-----------0----------0----------2----------0---------------------|
A|-0---------------------2----------0----------2-------------------------|
E|-------------0---------------------------------------------------------|


[Verse 2]

   Ebsus4    Ab        Fm7     F5      Fm7           Ab
e|----0-------------------0-------0-------0------0-----------------------|
B|----0--------0----------0-------0-------0------0-----0----------0------|
G|----3--------0----------1-------1-------1------1-----0--0h1-----0--0h1-|
D|----2--------0----------0-------2-------0------0-----0--0-0-----0--0-0-|
A|-0------------------2-------0-------2----------2--------0h2--------0h2-|
E|----------0--------------------------------2-------0----------0--------|


[Chorus]

   Eb5      F5           C#maj7
e|---------------------------------------------------------------------|
B|-0--------0----------------------------------------------------------|
G|-x--------0------------0--0--0--0--0--0--0--0------------------------|
D|-2--------x------------4--5--4--0--4--5--4--0------------------------|
A|-0--------2----------------------------------------------------------|
E|--------------------5--5--5--5--5--5--5--5--5------------------------|


[Intro]

e|----0--0----------------------0----------0----------0---------------------|
B|----0-----4---2----0----------0----------0----------0---------------------|
G|----3--------------0----------1----------1----------1---------------------|
D|----2--------------0----------0----------2----------0---------------------|
A|-0------------------------2----------0----------2-------------------------|
E|----------------0---------------------------------------------------------|

[Verse 2]


[Verse 1]


[Verse 1]

This my excavation and today is kumran


[Verse 2]

Everything that happens is from now on
This is pouring rain
This is paralyzed


[Verse 1]


[Verse 2]


[Verse 1]
I keep throwing it down two-hundred at a time


[Verse 2]

It's hard to find it when you knew it
When your money's gone
And you're drunk as hell


[Verse 1]


[Chorus]

On your back with your racks as the stacks are your load


[Chorus]

In the back and the racks and the stacks of your load


[Chorus]

In the back with your racks and you're un-stacking your load


[Verse 1]

Well I've been twisting to the sun and the moon
I needed to replace


[Verse 2]

The fountain in the front yard is rusted out
All my love was down
In a frozen ground


[Verse 1]

There's a black crow sitting across from me
His wiry legs are crossed


[Verse 2]

He is dangling my keys, he even fakes a toss
Whatever could it be
That has brought me to this loss?


[Chorus]

On your back with your racks as the stacks are your load


[Chorus]

In the back and the racks and the stacks of your load


[Chorus]

In the back with your racks and you're un-stacking your load


[Verse 1]

This is not the sound of a new man or crispy realization


[Verse 2]

It's the sound of the unlocking and the lift away
Your love will be
Safe with me

end on an open strum


That's it.
Hope you enjoyed!


************************************

| x    Dead note
| (n)  Ghost note
| h    Hammer-on
| p    Pull-off

************************************

            
            
Suggest correction
Creating personal tab
Creating personal tab
You can edit any tab online and save it as your Personal.

You can edit, replace or remove any tab part or add personal notes – all changes will be seen only by you.

Personal tabs can be accessed anytime from any device, even offline.
Learn more »
comments
print report bad tab
guest
You may want to rate the tab now too:
select rating
Wanna post a correction for this tab? Suggest correction