Oops, an error
Loading. Please wait.

Holocene tab

version 10
version 10

Whole song

Interactive

1,538 views 3 this week
no commentswrite comment
1 2 3 4 5
1 last vote to show rating
add to favorites
×
Save as Personal and add changes to this tab that will be seen only by you. Learn more ›
×
You can save this tab as Personal to edit and correct it or add notes. All changes will be seen only by you. Learn more »
launch autoscroll
font size
0
reset
how to read this tab
guitar tuner
edit
Autoscroll
slow
fast
+/-
esc
set tempo
stop
About this tab version
This is the same as the original piece, but compensates for not having the Nashville tuning. Was this info helpful? Yes No
-------------------------------------------------------------------------------
                             HOLOCENE - Bon Iver
-------------------------------------------------------------------------------
Tabbed by: Jackson Turner (thanks to Joe V. for the Nashville tuning version)
E-mail: jackson.chase.turner@gmail.com

CAPO 2
Tuning: tune all strings ½ step down except the B string.

Basically, repeat these measures and variate throughout the song.
This is the same as the original piece, but compensates for not having the Nashville tuning.
(all notes and chords are relative to the capo)

   C          C          Am     G          G          G          G
d#|------0---|------0---|------|------0---|------0---|------0---|------0---|
B |---0------|---0------|---0--|---0------|---0------|---0------|---0------|
F#|-12-12-12-|-12-12-12-|-12-12|-12-12-12-|-12-12-12-|-12-12-12-|-12-12-12-|
C#|-----14-14|-----14-14|------|-----12-12|-----12-12|-----12-12|-----12-12|
G#|15--------|15--------|0-----|----------|----------|----------|----------|
D#|----------|----------|------|15--------|15--------|15--------|15--------|


   Am         F          F          F          F
d#|------0---|------0---|------0---|------0---|------0---||
B |---0------|---0------|---0------|---0------|---0------||
F#|-12-12-12-|-12-12-12-|-12-12-12-|-12-12-12-|-12-12-12-||
C#|-----12-12|-----12-12|-----12-12|-----12-12|-----12-12||
G#|0---------|----------|----------|----------|----------||
D#|----------|13--------|13--------|13--------|13--------||
                                              

   C          C          Am     G          G          G          G
d#|------0---|------0---|------|------0---|------0---|------0---|------0---|
B |---0------|---0------|---0--|---0------|---0------|---0------|---0------|
F#|-12-12-12-|-12-12-12-|-12-12|-12-12-12-|-12-12-12-|-12-12-12-|-12-12-12-|
C#|-----14-14|-----14-14|------|-----12-12|-----12-12|-----12-12|-----12-12|
G#|15--------|15--------|12----|----------|----------|----------|----------|
D#|----------|----------|------|15--------|15--------|15--------|15--------|
                        
   Am         F          F          F          F
d#|------0---|------0---|------0---|------0---|------0---||
B |---0------|---0------|---0------|---0------|---0------||
F#|-12-12-12-|-12-12-12-|-12-12-12-|-12-12-12-|-12-12-12-||
C#|-----12-12|-----12-12|-----12-12|-----12-12|-----12-12||
G#|12--------|----------|----------|----------|----------||
D#|----------|13--------|13--------|13--------|13--------||
  

            
            
Suggest correction
Creating personal tab
Creating personal tab
You can edit any tab online and save it as your Personal.

You can edit, replace or remove any tab part or add personal notes – all changes will be seen only by you.

Personal tabs can be accessed anytime from any device, even offline.
Learn more »
Give kudos to tab author, rate the tab!
1 2 3 4 5
comments
print report bad tab
guest
You may want to rate the tab now too:
select rating
Wanna post a correction for this tab? Suggest correction