Oops, an error
Loading. Please wait.

Holocene Tab

version 2
103,458 views 246 this week
7 commentsread comments
1 2 3 4 5
excellent!
x 29
add to favorites
launch autoscroll
font size
0
reset
how to read this tab
guitar tuner
Tab Pro tools
  • play this tab
  • loop segment
  • change instrument
  • show fretboard
  • metronome
×
Best way to learn
"Holocene"
Autoscroll
slow
fast
+/-
esc
set tempo
stop
Difficulty
intermediate
-------------------------------------------------------------------------------
                             HOLOCENE - Bon Iver
-------------------------------------------------------------------------------
Tabbed by: dodman

Capo: 6th

Tuning: C, A, D, G, B, d

INTRO AND VERSE

let ring.
d|---0----0-------------------| x2 d|---0---0----| 
B|--------------0-------------|    B|------------|
G|-----0-----2--------2-------|    G|-----0------|
D|-5--------------------------|    D|-2----------|
A|----------------------------|    A|------------|
C|----------------------------|    C|------------|

let ring.
d|---0----0-------------------| x4
B|--------------0-------------|
G|-----0-----2--------2-------|
D|-0--------------------------|
A|----------------------------|
C|----------------------------|

let ring.
d|---0----0-------------------| d|---0----0-------------------| x4
B|--------------0-------------| B|--------------0-------------|
G|-----0-----2--------2-------| G|-----0-----2--------2-------|
D|-2--------------------------| D|----------------------------|
A|----------------------------| A|-3--------------------------|
C|----------------------------| C|----------------------------|

PRE-CHORUS

Pick similarly to verse
d|0
B|1
G|0
D|2
A|3
C|0

CHORUS
Notes in brackets are the bass-line to give it a fuller sound, play at your own discretion.

let ring.
d|---0----0-------------------| x2  d|---0----0-------------------| x4
B|--------------0-------------|     B|--------------0-------------|
G|-----0-----2--------2-------|     G|-----0-----2--------2-------|
D|-2--------------------------|     D|-0--------------------------|
A|----------------------------|     A|----------------------------|
C|(4)-------------------------|     C|(2)-------------------------|

let ring.
d|---0----0-------------------| x4
B|--------------0-------------|
G|-----0-----2--------2-------|
D|----------------------------|
A|-3--------------------------|
C|(0)-------------------------|

let ring.
d|---0----0-------------------|  d|---0----0-------------------| x4
B|--------------0-------------|  B|--------------0-------------|
G|-----0-----2--------2-------|  G|-----0-----2--------2-------|
D|-2--------------------------|  D|-0--------------------------|
A|----------------------------|  A|----------------------------|
C|(4)-------------------------|  C|(2)-------------------------|

let ring.
d|---0----0-------------------|  d|---0----0-------------------|
B|--------------0-------------|  B|--------------0-------------|
G|-----0-----2--------2-------|  G|-----0-----2--------2-------|
D|----------------------------|  D|-2--------------------------|
A|-3--------------------------|  A|----------------------------|
C|(0)-------------------------|  D|(4)-------------------------|

let ring.
d|---0----0-------------------|  d|---0----0-------------------| x4
B|--------------0-------------|  B|--------------0-------------|
G|-----0-----2--------2-------|  G|-----0-----2--------2-------|
D|-5--------------------------|  D|-0--------------------------|
A|----------------------------|  A|----------------------------|
C|(7)-------------------------|  C|(2)-------------------------|

let ring.
d|---0---0----|  d|---0---0----|  d|---0---0----| 
B|------------|  B|------------|  B|------------| 
G|-----0------|  G|-----0------|  G|-----0------|
D|-2----------|  D|------------|  D|-0----------|
A|------------|  A|-3----------|  A|------------|
C|(4)---------|  C|(0)---------|  C|(2)---------| 

let ring.
d|---0----0-------------------|    d|0
B|--------------0-------------|    B|0
G|-----0-----2--------2-------|    G|0
D|-5--------------------------|    D|5
A|----------------------------|    A|-
C|----------------------------|    C|-


comments
print report bad tab
7 comments total. Showing first comments.
+1 reply
telemann0909 wrote on August 9 2011, 12:39 am

Great tab, keep it up!

0 reply
matthewnedel wrote on August 13 2011, 12:26 pm

Thanks and ace tab man.
The one thing i would change though is if you tune your low E to a C# and just use the capo to bar the other 5 strings,then you can play the root notes of the chord to beef out the sound. Also playing the open C# sounds ace at the end of the chorus.

-1 reply
hazzav wrote on September 2 2011, 01:47 pm

good tab, just one mistake I found, the intro/verse should look like this:


d|---0----0-------------------| x2
B|--------------0-------------|
G|-----0-----4--------2-------|
D|-5--------------------------|
A|----------------------------|
C|----------------------------|

thanks

I want to post or [tab]
guest
You may want to rate the tab now too:
select rating
Please do not post tabs as comments. Select "correction" instead!