Oops, an error
Loading. Please wait.

Minnesota Wi Tab

version 1
version 1

Whole song

22,157 views 33 this week
no commentswrite comment
1 2 3 4 5
excellent!
x 4
add to favorites
launch autoscroll
font size
0
reset
how to read this tab
guitar tuner
Autoscroll
slow
fast
+/-
esc
set tempo
stop
Help us to improve Ultimate-Guitar.com Take our survey!
×
Author
-------------------------------------------------------------------------------
                          Minnesota, WI - Bon Iver
-------------------------------------------------------------------------------
Tabbed by: me!

Tuning: Tabbed in standard, might be tuned differently on the record.

INTRO:

The main riff is played with a delay pedal:

e|---------------------|
B|---------------------|
G|--8------------------|
D|-----8--10-----------| (x5)
A|------------10-------|
E|---------------------|

On the Third time, start playing this over the top of it:

e|-------------------------------|
B|-------------------------------|
G|-------------------------------|
D|-------------------------------| (x8)
A|---8--10--8--------------------|
E|-------------11--8--6----------|

Then for the next part just strum Cm off-beat.

e|-----------------------------------------------------------------------|
B|-----------------------------------------------------------------------|
G|-------------------8---------------------------------------------------|
D|--10--10--8/10--------8------------------------------------------------|
A|--------------------------10-------------------6--------10--8----------|
E|-----------------------------------8-8-8-6-8-8-----------------11--8---|


VERSE:

e|-----------------------------------------------------------------------|
B|-----------------------------------------------------------------------|
G|----8~----------7~------------------3~----------3~---------------------|
D|---10~----------8~-----------6~-----5~----------3~---------------------|
A|-----------------------------------------------------------------------|
E|-----------------------------------------------------------------------|


CHORUS:

    G#
e|-----------------------------------------------------------------------|
B|--9------9------9-----------------9------9------9----------------------|
G|-------8------8------8-------8---------8------8------8----8------------|
D|----10-----10-----10------10---10---10-----10-----10---10---10---------|
A|-----------------------------------------------------------------------|
E|-----------------------------------------------------------------------|
    Cm
e|-----------------------------------------------------------------------|
B|--8------8------8-----------------8------8------8----------------------|
G|-------8------8------8-------8---------8------8------8----8------------|
D|----10-----10-----10------10---10---10-----10-----10---10---10---------|
A|-----------------------------------------------------------------------|
E|-----------------------------------------------------------------------|
    A#
e|-----------------------------------------------------------------------|
B|--6------6-----6---------------6------6-----6--------------------------|
G|-------7-----7-----7------7---------7-----7-----7---7------------------|
D|-----8-----8-----8------8---8-----8-----8-----8---8---8----------------|
A|-----------------------------------------------------------------------|
E|-----------------------------------------------------------------------|
    Cm
e|-----------------------------------------------------------------------|
B|--8------8------8-----------------8------8------8----------------------|
G|-------8------8------8-------8---------8------8------8----8------------|
D|----10-----10-----10------10---10---10-----10-----10---10---10---------|
A|-----------------------------------------------------------------------|
E|-----------------------------------------------------------------------|



LYRICS:

Armour let it through, borne the arboretic truth you kept posing
sat down in the suit, fixed on up it wasn't you by finished closing

ramble in the roots, had the marvel, moved the proof be kneeled fine's glowing
storing up the clues, it had its sullen blue bruised through by showing

settle past a patience where wishes and your will are spilling pictures
water's running through in the valley where we grew to write this this scripture

never gonna break, never gonna break
never gonna break, never gonna break
not for a part in any gamut of the dark

doubled in the toes annex it, it minute closed in the morning
did not lose it in the stack's stow, imma lay that call back on ya

you know it won't beseech you, we're laying in an open field
I will let you grow, no need to know this

so carry on my dear, what is clear up in the daylight is we're hung here
fall is coming soon, a new year for the moon and the Hmong here

never gonna break, never gonna break
never gonna break, never gonna break
all that it seems
bellows tracing through the streams

never gonna break, never gonna break
never gonna break, never gonna break
all at its seams
swallows swelling for the beams

************************************

| /   slide up
| \   slide down
| h   hammer-on
| p   pull-off
| ~   vibrato
| +   harmonic
| x   Mute note
| b   Bend
| pb  Pre-bend
| br  Bend release
| pbr Pre-bend release
| brb Bend release bend

************************************
Suggest correction
What's this?
You can suggest a correction to this tab. Community and Mods will review your correction and vote to approve or reject it.
comments
print report bad tab
guest
You may want to rate the tab now too:
select rating
Please do not post tabs as comments. Select "correction" instead!