Oops, an error
Loading. Please wait.

Perth Tab

version 5
version 5

Whole song

13,418 views 1 this week
2 commentsread comments
1 2 3 4 5
x 3
add to favorites
launch autoscroll
font size
0
reset
how to read this tab
guitar tuner
Autoscroll
slow
fast
+/-
esc
set tempo
stop
Help us to improve Ultimate-Guitar.com Take our survey!
×
Author
Capo
4th fret
Tuning:
E-B-D#-Gb-B-e

Capo 4th fret


e | --------------------------------------------------0------- |
B | ------------------------0-------------0-------2h4b5r4p2p0- |
Gb| ----------2---------2h4---4---------4--------------------- |
D#| --------3------------------------------------------------- | repeat
B | -(0)---------(0)------------------------------------------ |
E | --0---0-------2---2-----------4---4----------------------- |
                 (T) (T)

(T) means using your thumb to hit the note.

Good luck!

/dmh
Suggest correction
Give kudos to tab author, rate the tab!
1 2 3 4 5
comments
print report bad tab
2 comments total.
0 reply
OlyT 10 Sep 13, 2011 09:16 AM

Perfect tab! Thanks.

+1 reply
Stubbgubben 114 Sep 22, 2011 06:28 AM

A somewhat easier tuning (I find) is open d, and with capo On sixth I play like this:

d|------------------------------------------------0-------|
A|----------------------0-------------0-------2h4b5r4p2p0-|
F#|-------0---------0h2---2---------2---------------------|
D|------2-------------------------------------------------|
A|(0)--------(0)------------------------------------------|
D|-0--0-------2---2-----------4---4-----------------------|

That's how I would play it, and since I probably won't get a tab accepted, I'll just post it here

guest
You may want to rate the tab now too:
select rating
Wanna post a correction for this tab? Suggest correction