Oops, an error
Loading. Please wait.

Re Stacks Tab

version 2
version 2

Whole song

Interactive

29,799 views 159 this week
1 commentread comment
1 2 3 4 5
x 6
add to favorites
launch autoscroll
font size
0
reset
how to read this tab
guitar tuner
Autoscroll
slow
fast
+/-
esc
set tempo
stop
Help us to improve Ultimate-Guitar.com Take our survey!
×
Author
Difficulty
Capo
intermediate
7th fret
This really is a great song! 
the tabs i found were really helpful but the tuning did not quite fit to the song on his album. 
so, i hope this is right and have fun playing it! =)

The tuning is DAF#DAD, Capo on the 7th fret.


d |----0----------------------0----------0----------0---------------------|
A |----0-----------0----------0----------0----------0---------------------|
F#|----3-----------0----------1----------1----------1---------------------|
D |----2-----------0----------0----------2----------0---------------------|
A |-0---------------------2----------0----------2-------------------------|
D |-------------0---------------------------------------------------------|

d |----0-------------------0-------0-------0------0-----------------------|
A |----0--------0----------0-------0-------0------0-----0-----------------|
F#|----3--------0----------1-------1-------1------1-----0--0h1------------|
D |----2--------0----------0-------2-------0------0-----0--0-0------------|
A |-0------------------2-------0-------2----------2--------0h2------------|
D |----------0--------------------------------2-------0-------------------|


[Chorus:]

d |---------------------------------------------------------------------|
A |-0--------0----------------------------------------------------------|
F#|-x--------0------------0--0--0--0--0--0--0--0------------------------|
D |-2--------x------------4--5--4--0--4--5--4--0------------------------|
A |-0--------2----------------------------------------------------------|
D |--------------------5--5--5--5--5--5--5--5--5------------------------|


This my excavation and today is kumran
Everything that happens is from now on
This is pouring rain
This is paralyzed

I keep throwing it down two-hundred at a time
It's hard to find it when you knew it
When your money's gone
And you're drunk as hell

On your back with your racks as the stacks as your load
In the back and the racks and the stacks are your load
In the back with your racks and you're un-stacking your load

I've twisting to the sun I needed to replace
The fountain in the front yard is rusted out
All my love was down
In a frozen ground

There's a black crow sitting across from me; his wiry legs are crossed
And he's dangling my keys he even fakes a toss
Whatever could it be
That has brought me to this loss?

[Refrain]

This is not the sound of a new man or crispy realization
It's the sound of the unlocking and the lift away
Your love will be
Safe with me



************************************

| x  Dead note
| h  Hammer-on

************************************
Suggest correction
comments
print report bad tab
1 comment total.
0 reply
ADwayne 86 Dec 10, 2015 12:16 AM

should be DADF#AD

guest
You may want to rate the tab now too:
select rating
Wanna post a correction for this tab? Suggest correction