Oops, an error
Loading. Please wait.

Roslyn Tab

20,249 views 9 this week
4 commentsread comments
1 2 3 4 5
accurate
x 6
add to favorites
launch autoscroll
font size
0
reset
how to read this tab
guitar tuner
Tab Pro tools
  • play this tab
  • loop segment
  • change instrument
  • show fretboard
  • metronome
×
Best way to learn
"Roslyn"
Autoscroll
slow
fast
+/-
esc
set tempo
stop
Contributor
Difficulty
intermediate
Date: Thu, 4 Jan 2011 23:06:00
Tabbed by: earsician

Justin Vernon & St. Vincent - Roslyn


Justin Vernon (not Bieber *sigh*) uses a miscellaneous tuning in this song.
I figured it out by ear+watching a live video and im pretty sure its correct.
If you have any corrections send me a message.

This interpretation is based on the Live version of
Justin Vernon & St. Vincent - Roslyn @ MusicNOW 2010 (youtube.com)

Have fun & check the song for rhythm patterns
Tuning :  E B D F# D F#

INTRO //

                       [      x3  ]                         [        x4 ]
F#:--x--xxx--x--xxx------0---0-0-0------0--0--0--0--0--0-----0---0-0-0-----|
D :--x--xxx--x--xxx------0---0-0-0------0--0--0--0--0--0-----0---0-0-0-----|
F#:--x--xxx--x--xxx------8---8-8-8------10-10-10-10-10-10----8---8-8-8-----|
D :--x--xxx--x--xxx------9---9-9-9------11-11-11-11-11-11----9---9-9-9-----|
B :--x--xxx--x--xxx------7---7-7-7------10-10-10-10-10-10----7---7-7-7-----|
E :--x--xxx--x--xxx----(10)------------(12)----------------(10)------------|




                [    x3  ]
F#:--0--0-0-0----0--0-0-0----000000----0--0-0-0----0--0-0-0---------------|
D :--0--0-0-0----0--0-0-0----000000----0--0-0-0----0--0-0-0---------------|
F#:--0--0-0-0----1--1-1-1----111111----0--0-0-0----1--1-1-1---------------|
D :--0--0-0-0----2--2-2-2----222222----0--0-0-0----2--2-2-2---------------|
B :--0--0-0-0----0--0-0-0----000000----0--0-0-0----0--0-0-0---------------|
E :--x--x-x-x----x--x-x-x----xxxxxx----x--x-x-x----x--x-x-x---------------|




F#:----0----0--0--0---0---0--0---|
D :----0----0--0--0---0---0--0---|
F#:----1----1--0--1--1/3--1--0---|
D :----2----2--2--2--2/4--2--0---|
B :----0----0--0--0---0---0--0---|
E :----x----x--x--x---x---x--x---|




VERSE ///


F#:--0---0-0-0----0---0-0-0----0---0-0-0----0---0-0-0-----|
D :--0---0-0-0----0---0-0-0----0---0-0-0----0---0-0-0-----|
F#:--8---8-8-8----8---8-8-8----8---8-8-8----8---8-8-8-----|
D :--9---9-9-9----9---9-9-9----9---9-9-9----9---9-9-9-----|
B :--7---7-7-7----7---7-7-7----7---7-7-7----7---7-7-7-----|
E :--xxxxxxxxx----xxxxxxxxx----xxxxxxxxx----xxxxxxxxx-----|

                               Up  with your turrets ...


F#:--0---0-0-0----0---0-0-0----0---0-0-0----0---0-0-0---0--000--0--000-|
D :--0---0-0-0----0---0-0-0----0---0-0-0----0---0-0-0---0--000--0--000-|
F#:--8---8-8-8----8---8-8-8----8---8-8-8----8---8-8-8---0--000--1--111-|
D :--9---9-9-9----9---9-9-9----9---9-9-9----9---9-9-9---0--000--2--222-|
B :--7---7-7-7----7---7-7-7----7---7-7-7----7---7-7-7---0--000--0--000-|
E :--xxxxxxxxx----xxxxxxxxx----xxxxxxxxx----xxxxxxxxx---x--xxx--x--xxx-|

                               Aren't we just te~  ~  ~ rrified


                                              [   x4  ]
F#:-0--000---0---0--0--0---0---0--0---0--000---0--000--|
D :-0--000---0---0--0--0---0---0--0---0--000---0--000--|
F#:-1--111---1---1--0--1--1/3--1--0---0--000---1--111--|
D :-2--222---2---2--2--2--2/4--2--0---0--000---2--222--|
B :-0--000---0---0--0--0---0---0--0---0--000---0--000--|
E :-x--xxx---x---x--x--x---x---x--x---x--xxx---x--xxx--|




F#:-----0/0---0-0-0----0---0-0-0----0---0-0-0----0---0-0-0-----|
D :-----0/0---0-0-0----0---0-0-0----0---0-0-0----0---0-0-0-----|
F#:-----1/8---8-8-8----8---8-8-8----8---8-8-8----8---8-8-8-----|
D :-----2/9---9-9-9----9---9-9-9----9---9-9-9----9---9-9-9-----|
B :-----0/7---7-7-7----7---7-7-7----7---7-7-7----7---7-7-7-----|
E :-------xxxxxxxxx----xxxxxxxxx----xxxxxxxxx----xxxxxxxxx-----|

                                    Shale screen your worry ...

F#:--0---0-0-0----0---0-0-0----0---0-0-0----0---0-0-0---0--000--0--000-|
D :--0---0-0-0----0---0-0-0----0---0-0-0----0---0-0-0---0--000--0--000-|
F#:--8---8-8-8----8---8-8-8----8---8-8-8----8---8-8-8---0--000--1--111-|
D :--9---9-9-9----9---9-9-9----9---9-9-9----9---9-9-9---0--000--2--222-|
B :--7---7-7-7----7---7-7-7----7---7-7-7----7---7-7-7---0--000--0--000-|
E :--xxxxxxxxx----xxxxxxxxx----xxxxxxxxx----xxxxxxxxx---x--xxx--x--xxx-|

                               from what you will never fi~  ~  ~nd


                                  [  x2  ]
F#:-0--000---0--0000000---0--000---0--000----0---0--0--0---0---0--0--|
D :-0--000---0--0000000---0--000---0--000----0---0--0--0---0---0--0--|
F#:-1--111---1--1111111---0--000---1--111----1---1--0--1--1/3--1--0--|
D :-2--222---2--2222222---0--000---2--222----2---2--2--2--2/4--2--0--|
B :-0--000---0--0000000---0--000---0--000----0---0--0--0---0---0--0--|
E :-x--xxx---x--xxxxxxx---x--xxx---x--xxx----x---x--x--x---x---x--x--|





CHORUS ///


F#:---0--000-----0--000-----0--000-----0--000------|
D :---0--000-----0--000-----0--000-----0--000------|
F#:---7--777-----7--777-----7--777-----7--777------|
D :---7--777-----7--777-----7--777-----7--777------|
B :---7--777-----7--777-----7--777-----7--777------|
E :---x--xxx-----x--xxx-----x--xxx-----x--xxx------|

     Don't                 let it fool you

                                                       *  [  x7  ]
F#:---0--000-----0--000-----0--000-----0--000------|    ---0--000-|
D :---0--000-----0--000-----0--000-----0--000------|    ---0--000-|
F#:---8--888-----8--888-----8--888-----8--888------|    ---8--888-|
D :---7--777-----7--777-----7--777-----7--777------|    ---9--999-|
B :---7--777-----7--777-----7--777-----7--777------|    ---7--777-|
E :---x--xxx-----x--xxx-----x--xxx-----x--xxx------|    ---x--xxx-|

     Don't                  let it fool you             Doooown~


                 [  x3 ]             [     x4    ]
F#:---0--000-----0--000---0--000-----0---0--0--0---|
D :---0--000-----0--000---0--000-----0---0--0--0---|
F#:---8--888-----3--333---3--333-----10--10-10-10--|
D :---9--999-----4--444---4--444-----11--11-11-11--|
B :---7--777-----3--333---3--333-----10--10-10-10--|
E :---x--xxx-----x--xxx---x--xxx-----x--xxx--------|

      Dont  sit  around ; folds in the ground



INSTRUMENTAL ///

    [   x7   ]    1/4 pause
F#:---0--000---------------|
D :---0--000---------------|
F#:---0--000---------------|
D :---0--000---------------|
B :---0--000---------------|
E :---0--000---------------|



Verse 2  // (same tabs)

Chorus  // (same tabs)

Interludium  //

Verse 3  //  (same tabs)

last chorus :

here they start with


F#:---0--000-----0--000-----0--000-----0--000---|
D :---0--000-----0--000-----0--000-----0--000---|
F#:---1--111-----1--111-----1--111-----1--111---|
D :---2--222-----2--222-----2--222-----2--222---|
B :---0--000-----0--000-----0--000-----0--000---|
E :---x--xxx-----x--xxx-----x--xxx-----x--xxx---|

     won't ..    won't ...  won't ...  won't ...


but continue the original way ( here * )

Rest of the lyric :
------------------------
Verse 2:

Sea and the rock below
Cocked to the undertow
Bones blood and teeth erode, with every crashing node
------------------
Chorus 2:
Wings wouldn't help you
Wings wouldn't help you...down

Down fills the ground, gravity's proud
-----------
Verse 3 :

You barely are blinking
Wagging your face around
When'd this just become a mortal home?
------------------
last Chorus :

Won't, won't, won't, won't

Won't let you talk me
Won't let you talk me down.

Will pull it taut, nothing let out
--------------------------------

Hope this tab helps more than it confuses :D

earsician
comments
print report bad tab
4 comments total. Showing first comments.
+1 reply
Hangar_18 wrote on February 15 2011, 02:13 pm

Awesome tab transcription, but I've got one correction. Your first chord,x79800 (F# minor, I think) Should be changed to x89800 (Gmaj7 I believe). It sound more like the song and I think you'd agree. I haven't really looked through the rest of the tab but I'm sure it's great from what I can see. No one likes knit-pickers anyway. 5 stars from me.

-1 reply
sensory wrote on February 16 2011, 12:22 am

Excellent, accurate tab. For the studio version I believe it's the same tuning, but a half step lower. So the tab would be the same, but the tuning would be F,C#,F,C#,Bb,F# high to low.

+1 reply
indiejive wrote on December 5 2011, 09:17 pm

Very nice tab.
Only thing is on the recording the tuning is actually a full step lower than what you used so from lowest to highest the tuning would be DACEce

I want to post or [tab]
guest
You may want to rate the tab now too:
select rating
Please do not post tabs as comments. Select "correction" instead!