Oops, an error
Loading. Please wait.

Skinny Love Tab

version 8
version 8
3,653 views 15 this week
no commentswrite comment
1 2 3 4 5
accurate
x 3
add to favorites
launch autoscroll
font size
0
reset
how to read this tab
guitar tuner
Tab Pro tools
  • play this tab
  • loop segment
  • change instrument
  • show fretboard
  • metronome
×
Best way to learn
"Skinny Love"
Autoscroll
slow
fast
+/-
esc
set tempo
stop
Difficulty
Capo
intermediate
5th fret
Capo on 5
Tuning EADGBC
Tune the C so it sounds like the 1st fret of the B string, and exclude your new C
string from the capo. So...

C -------0----------|
B -------5----------|
G -------5----------|
D -------5----------|
A -------5----------|
E -------5----------|


Intro:

    Am (x4)     C (x4)    C/G (x9)
|----x-x-x-x---x-x-x-x---x-x-x-x-x-x-x-x-x--------2-4-2-0-2-4-2-0----|
|----0-0-0-0---0-0-0-0---x-x-x-x-x-x-x-x-x--------0-0-0-0-0-0-0-0----|
|----0-0-0-0---0-0-0-0---0-0-0-0-0-0-0-0-0--------0-0-0-0-0-0-0-0----|
|----2-2-2-2---5-5-5-5---0-0-0-0-0-0-0-0-0---------------------------|
|----2-2-2-2---2-2-2-2---5-5-5-5-5-5-5-5-5---------------------------|
|-2--0-0-0-0---3-3-3-3---3-3-3-3-3-3-3-3-3---------------------------|



 Am (x4)     C (x4)    C/G (x9)
|----x-x-x-x---x-x-x-x---x-x-x-x-x-x-x-x-x--------7-9-7-4-2-4-2-0--|
|----0-0-0-0---0-0-0-0---x-x-x-x-x-x-x-x-x--------0-0-0-0-0-0-0-0--|
|----0-0-0-0---0-0-0-0---0-0-0-0-0-0-0-0-0--------0-0-0-0-0-0-0-0--|
|----2-2-2-2---5-5-5-5---0-0-0-0-0-0-0-0-0-------------------------|
|----2-2-2-2---2-2-2-2---5-5-5-5-5-5-5-5-5-------------------------|
|-2--0-0-0-0---3-3-3-3---3-3-3-3-3-3-3-3-3-------------------------|




Am (x4)     C (x4)    C/G (x9)
|----x-x-x-x---x-x-x-x---x-x-x-x-x-x-x-x-x--------5--5--4----------|
|----0-0-0-0---0-0-0-0---x-x-x-x-x-x-x-x-x--------0--0--0----------|
|----0-0-0-0---0-0-0-0---0-0-0-0-0-0-0-0-0--------0--0--0----------|
|----2-2-2-2---5-5-5-5---0-0-0-0-0-0-0-0-0-------------------------|
|----2-2-2-2---2-2-2-2---5-5-5-5-5-5-5-5-5-------------------------|
|-2--0-0-0-0---3-3-3-3---3-3-3-3-3-3-3-3-3-------------------------|



      D6 (x6)        Am (Until singing)
 ---x-x-x-x-x-x----0-0-0-0-------------------|
----x-x-x-x-x-x----0-0-0-0-------------------|
----2-2-2-2-2-2----0-0-0-0-------------------|
----0-0-0-0-0-0----2-2-2-2-------------------|
----0-0-0-0-0-0----2-2-2-2-------------------|
----2-2-2-2-2-2----0-0-0-0-------------------|


Verse

Come on skinny love, just last year.
(I tell my love to wreck it all).

Am (x4)     C (x4)    C/G (x9)
|----x-x-x-x---x-x-x-x---x-x-x-x-x-x-x-x-x--------|
|----0-0-0-0---0-0-0-0---x-x-x-x-x-x-x-x-x--------|
|----0-0-0-0---0-0-0-0---0-0-0-0-0-0-0-0-0--------|
|----2-2-2-2---5-5-5-5---0-0-0-0-0-0-0-0-0--------|
|----2-2-2-2---2-2-2-2---5-5-5-5-5-5-5-5-5--------|
|-2--0-0-0-0---3-3-3-3---3-3-3-3-3-3-3-3-3--------|


Pour a little salt we were never here
(Cut out all the ropes and let me fall).

 Am (x4)     C (x4)    C/G (x9)
|----x-x-x-x---x-x-x-x---x-x-x-x-x-x-x-x-x--------|
|----0-0-0-0---0-0-0-0---x-x-x-x-x-x-x-x-x--------|
|----0-0-0-0---0-0-0-0---0-0-0-0-0-0-0-0-0--------|
|----2-2-2-2---5-5-5-5---0-0-0-0-0-0-0-0-0--------|
|----2-2-2-2---2-2-2-2---5-5-5-5-5-5-5-5-5--------|
|-2--0-0-0-0---3-3-3-3---3-3-3-3-3-3-3-3-3--------|



My, my, my, my, my, my, my, my, my, my.
(My, my, my, my, my, my, my, my, my, my).

Am (x4)     C (x4)    C/G (x9)
|----x-x-x-x---x-x-x-x---x-x-x-x-x-x-x-x-x--------|
|----0-0-0-0---0-0-0-0---x-x-x-x-x-x-x-x-x--------|
|----0-0-0-0---0-0-0-0---0-0-0-0-0-0-0-0-0--------|
|----2-2-2-2---5-5-5-5---0-0-0-0-0-0-0-0-0--------|
|----2-2-2-2---2-2-2-2---5-5-5-5-5-5-5-5-5--------|
|-2--0-0-0-0---3-3-3-3---3-3-3-3-3-3-3-3-3--------|



Staring at the sink of blood and crushed veneer
(Right at this moment, this order's tall).

----x-x-x-x-x-x----0-0-0-0---x-x-x------|
----x-x-x-x-x-x----0-0-0-0---0-0-0------|
----2-2-2-2-2-2----0-0-0-0---0-0-0------|
----0-0-0-0-0-0----2-2-2-2---5-5-5------|
----0-0-0-0-0-0----2-2-2-2---2-2-2------|
----2-2-2-2-2-2----0-0-0-0---3-3-3------|




Chorus


And I told you to be patient, and I told you to be fine.
And I told you to be balanced, and I told you to be kind.
In the morning I'll be with you, and it'll be a different kind.
I'll be holding all the tickets, and you'll be holding all the fines.


------------------------------------------|
------------------------------------------|
---5-0-0-0-0---0-0-0-0-0--0-0-0-0-0-0-0-0-|
---5-5-5-5-5---4-4-4-4-4--2-2-2-2-2-2-2-2-|
---0-0-0-0-0---0-0-0-0-0--3-3-3-3-3-3-3-3-|
---3-3-3-3-3---2-2-2-2-2--0-0-0-0-0-0-0-0-|
comments
We did not receive enough feedback on this tab! Please rate:
print report bad tab
1 2 3 4 5
I want to post or [tab]
guest
You may want to rate the tab now too:
select rating
Please do not post tabs as comments. Select "correction" instead!