Oops, an error
Loading. Please wait.

Towers Tab

version 1
version 1

Whole song

36,903 views 60 this week
no commentswrite comment
1 2 3 4 5
x 8
add to favorites
launch autoscroll
font size
0
reset
how to read this tab
guitar tuner
Autoscroll
slow
fast
+/-
esc
set tempo
stop
Help us to improve Ultimate-Guitar.com Take our survey!
×
Difficulty
Capo
novice
4th fret
Standard Tuning

Capo 4th Fret
[Verse]

e|----------0----0-0-------0-0------0-0---------0---------0-------0-0--|
B|----------1----1-1-------1-1------1-1---------1----1-------1----1-1--|
G|----0h2---------------0-----------0-0---------0-------0----0----0-0--|
D|-------------------------------2---------2h3-------------------------|
A|---------------------------------------------------------------------|
E|---------------------------------------------------------------------|


[Chorus]

    G            Am                 Fmaj7
e|--1------------0------------0---------|
B|--0------------1------------1---------|
G|--0------------2------------2---------|
D|--0------------2------------3---------|  
A|--2------------0------------3---------|
E|--3-------------------------1---------|(x3)

     Am    Fmaj7       C
e|----0------0---------0----------------|
B|----1------1---------1----------------|
G|----2------2---------0----------------|
D|----2------3---------2----------------|  Back to Verse
A|----0------3---------3----------------|
E|-----------1--------------------------|


[Bridge]
  NO CAPO
                    G              Bm          A
e|------------------1--------------2-----------0---------------|
B|------------------0--------------3-----------2---------------|
G|------------------0--------------4-----------2---------------|
D|------------------0--------------4-----------2---------------|
A|------------------2--------------2-----------0---------------|
E|---0---2----3-----3------------------------------------------|

The Last time he goes from the G to some sort
of a strange Bb or Amaj7-ish Chord that I couldn't quite figure out
I think its something similar to this which is like a Bb/Amaj7.
but it isn't quite right.

e|-----0-----------------|
B|-----2-----------------|
G|-----1-----------------|
D|-----2-----------------|
A|-----1-----------------|
E|-----------------------|

If you figure it out let me know.


Thats pretty much it. Goes back to the Verse and Chorus
but down a whole step to (Capo 2nd Fret) You can also play
this song easily without a capo. You just need to modify how
you play the Chords in the Chorus. Which would make the Bridge
and the Key change a little easier to do.

Hope you find this useful.



************************************

| h  Hammer-on

************************************
Suggest correction
comments
print report bad tab
guest
You may want to rate the tab now too:
select rating
Wanna post a correction for this tab? Suggest correction