Oops, an error
Loading. Please wait.

Always Run To You Tab

version 1
version 1

Whole song

Interactive

1,445 views 1 this week
no commentswrite comment
1 2 3 4 5
please rate
add to favorites
launch autoscroll
font size
0
reset
how to read this tab
guitar tuner
Autoscroll
slow
fast
+/-
esc
set tempo
stop
Help us to improve Ultimate-Guitar.com Take our survey!
×
Author
Bon Jovi - Always Run To You
7800° Farenheit (1985)

Into/Verse:
e|-------------------------------------------------------|
B|-------------------------------------------------------|
G|------------------5------7---------------------5-7-----|
D|-----7-----9------5------7---------7-----9-----5-7-9-5-|
A|-----7-----9-----------------------7-----9---------9-5-|
E|-5-5---5-5---5-5----5-5----5-5--5----5-5---5-5---------|

Pre-Chorus:
e|--------------------------------------|
B|--------------------------------------|
G|------------------------------5-----7-|
D|-3-3--3-3-3------7-----9------5-----7-|
A|-3-3--3-3-3------7-----9--------------|
E|-1-1--1-1-1--5-5---5-5---5-5----5-5---|

e|---------------------------------------|
B|---------------------------------------|
G|---------------------------------------|
D|-3-3---3-3-3-3-3-3-3-5-5-5-5-5-5---5-5-|
A|-3-3---3-3-3-3-3-3-3-5-5-5-5-5-5---5-5-|
E|-1-1---1-1-1-1-1-1-1-3-3-3-3-3-3---3-3-|

Chorus:
e|--------------------------------------------|
B|--------------------------------------------|
G|--------------------------------------------|
D|-7-7-7-5-7---7-7-5-7---7-7-7-5-7-----10--9--|
A|-7-7-7-5-7---7-7-5-7---7-7-7-5-7-----10--9--| x3
E|-5-5-5-3-5---5-5-3-5---5-5-5-3-5-----8---7--|

e|-------------------------------------|
B|-------------------------------------|
G|-------------------------------------|
D|-7-7-7-5-7---7-7-5-7---10-9-19--12-7-|
A|-7-7-7-5-7---7-7-5-7---10-9-10--12-7-|
E|-5-5-5-3-5---5-5-3-5---8--7--8--10-5-|
Suggest correction
Give kudos to tab author, rate the tab!
1 2 3 4 5
comments
print report bad tab
guest
You may want to rate the tab now too:
select rating
Wanna post a correction for this tab? Suggest correction