Oops, an error
Loading. Please wait.

Always Tab

version 1
version 1

Whole song

Video

144,924 views 117 this week
7 commentsread comments
1 2 3 4 5
accurate
x 29
add to favorites
launch autoscroll
font size
0
reset
how to read this tab
guitar tuner
Autoscroll
slow
fast
+/-
esc
set tempo
stop
Help us to improve Ultimate-Guitar.com Take our survey!
×
Bon Jovi: "Always"
Tabbed by Ross O'Keefe 


e|----------------------------------------|------------------------------------------------|
B|----------------------------------------|------------------------------------------------|
G|----------------------------------------|------------------------------------------------|
D|--------9h11------9h11------------------|------------------------------------------------|
A|-9-/-11------9h11------9h11--9b10\\7h9--|------7-9-9br7--------7-9-9br--------7-9-9bp7---|
E|--------------------------------------7-|--7-9----------9--7-9---------9--7-9----------9-|

e|------------------------------------------------------------------9--|
B|-------------12b-12--9-9-------12-12--9-9----------------------------|
G|------------------------11-11-------------11-11--9-11br9-9-11vv------|
D|------6--------------------------------------------------------------|
A|--7h9--9-------------------------------------------------------------|
E|---------------------------------------------------------------------|

e|---9-12-9-12------12p9---9-12-9-12----9-12/14-14b16r12h14---12-15b-14b--12-14------|
B|-------------12p9-----12-----------12----------------------------------------12h14-|
G|-----------------------------------------------------------------------------------|
D|-----------------------------------------------------------------------------------|
A|-----------------------------------------------------------------------------------|
E|-----------------------------------------------------------------------------------|



************************************

| h   Hammer-on
| p   Pull-off
| r   Release
| b   Bend
| br  Bend release
| /   Slide up
| \   Slide down

************************************
Suggest correction
comments
print report bad tab
7 comments total. Showing first comments.
0 reply
yeseram 10 wrote on December 19 2001, 12:00 am

No offense..hard to read and not accurate. Check www.tabcrawler.com for my version

0 reply
Amasing_bag_man 0 wrote on March 21 2002, 12:00 am

Yeah it rocks!

0 reply
beno93 277 wrote on May 13 2007, 07:20 am

this is ace peace out

guest
You may want to rate the tab now too:
select rating
Wanna post a correction for this tab? Suggest correction