Oops, an error
Loading. Please wait.

Bad Medicine Tab

version 3
version 3

Whole song

10,651 views 39 this week
no commentswrite comment
1 2 3 4 5
x 3
add to favorites
launch autoscroll
font size
0
reset
how to read this tab
guitar tuner
backing track
0:00
0:00
×
Best way to learn
"Bad Medicine"
Autoscroll
slow
fast
+/-
esc
set tempo
stop
Author
Difficulty
  follow
intermediate
BAD MEDICINE - Bon Jovi
Tabbed by: ironmanben
Email: bentrooper@gmail.com

[intro]
e|-----------------|
B|-5~------------5-|
G|-4~------------4-|
D|-----------------|
A|-----------------|
E|--------3-2-0----|


e|---------0-------------------0-0-0--------------------0--------------------|
B|---------0-------------------0-0-0--------------------0--------------------|
G|-------------------------------------2--2-2-2-4----------------------------|
D|--------------------7--5-4---------0-2--2-2-2-4-5-4-----------5-4-2--2-2-2-|
A|--------------------7--5-4---------0-0--0-0-0---5-4-----------5-4-2--2-2-2-|
E|-3-2-0-----0-0-3-0--5--3-2-0--------------------3-2-0---3-2-0--------------|

e|----------0--0--------------------0-------|
B|----------0--0--------------------0-------|
G|-----------------2--2-2-2-4---------------|
D|-7--5-4--------0-2--2-2-2-4-5-4-----------|
A|-7--5-4--------0-0--0-0-0---5-4-----------|
E|-5--3-2-0-------------------3-2-0---0-0-0-|

[verse intro]
e|------------------------------------------------|
B|------------------------------------------------|
G|---4-------4-0-4--4---------------4-------4-0-4-|
D|---2-0---0-2-0-2--2-0------2------2-0---0-2-0-2-|
A|-------2--------------2-0h2-----------2---------|
E|-0---------------------------3--0---------------|

[verse]
   x2                              x1                          
e|-------------------------------|----------------------------|
B|-------------------------------|----------------------------|
G|---4-------4-0-4--4------------|----2----0-2-----2----0-2-0-|
D|---2-0---0-2-0-2--2-0------2---|-2----0--0-2--2----0--0-2-0-|
A|-------2--------------2-0h2----|-0------------0-------------|
E|-0---------------------------3-|----------------------------|

   x1                              x1                        
e|-------------------------------|--------------------------|
B|-------------------------------|--------------------------|
G|---4-------4-0-4--4------------|---4-------4-4--4-2-4-4-4-|
D|---2-0---0-2-0-2--2-0------2---|---4-------4-4--4-2-4-4-4-|
A|-------2--------------2-0h2----|-2---0-1-2----------------|
E|-0---------------------------3-|--------------------------|

[pre-chorus]
e|---------------------------------------------------------------------------|
B|----------------------------------------------------3----------------------|
G|----------------------------------------------------2------4---------------|
D|-2----------------2----------------4----------------0------4-4-4-4-4-------|
A|-2----------------2----------------4-----------------------2-2-2-2-2-------|
E|-0------------3-2-0------------0-0-2------------2-0-------------------0-3--|

[post-chorus]
e|-----3-----3---3-----5-----5---5-----0-----0--------------|
B|-----3-----3---3-----5-----5---5-----0-----0--------------|
G|----------------------------------------------------------|
D|-0-0---0-0---0---------------------------------5~---4-2-2-|
A|-----------------4-4---4-4---4----------------------------|
E|---------------------------------0-0---0-0---0------------|

[post-chorus 2]
e|-----3-----3---3-----5-----5---5-----0-----0---0----------------|
B|-----3-----3---3-----5-----5---5-----0-----0---0----------------|
G|----------------------------------------------------------------|
D|-0-0---0-0---0--------------------------------------------------|
A|-----------------4-4---4-4---4----------------------------------|
E|---------------------------------0-0---0-0---0---0-0-0-0-0--0-0-|

[guitar solo]
e|----|----------|----------------------12---------------------------------|
B|-12-|-14p12----|-14^(16)-12---15^(17)---15-12----------------------------|
G|-12-|-14p12-14-|-14^(16)-12------------------14-12---14--12h13-----------|
D|-12-|-14p12-14-|-14^(16)-12-----------------------14---14-----14-12-14---|
A|----|-------14-|---------------------------------------------------------|
E|----|----------|---------------------------------------------------------|
       ^repeat x7

e|-18+18+-----------------------------------------------------10--15^(17)--|
B|--------------------------------------------------------------12---------|
G|-------14^(16)14^(16)------------------14p12--------16~~~~~--------------|
D|---------------------------12h14-12h14------14p12-14---------------------|
A|---------------------14-14-----------------------------------------------|
E|-------------------------------------------------------------------------|

e|-(unintelligable picking in that scale done very fast)---18^(20)~--|
B|-------------------------------------------------------------------|
G|-------------------------------------------------------------------|
D|-------------------------------------------------------------------|
A|-------------------------------------------------------------------|
E|-------------------------------------------------------------------|

[bridge]
   x4               
e|-----------------|-------------------------------|-----------------|
B|-----------------|-------------------------------|-----------------|
G|-----------------|-----4-----4-----4-----4-----4-|-----------------|
D|-----------------|-----4-----4-----4-----4-----4-|-----------------|
A|-----------------|-2-2---1-2---1-2---1-2---1-2---|-2-2-2-2-2-2-2-2-|
E|-0-0-3-4-5-0-3-5-|-------------------------------|-0-0-0-0-0-0-0-0-|

[post chorus 3]
e|-----3-----3---3-----5-----5---5-----0-0-0-0-0-0-0-0-0-0-0-0-0-0-0-0-|
B|-----3-----3---3-----5-----5---5-----5-5-5-5-5-5-5-5-5-4-5-7-7-6-8-8-|
G|-------------------------------------4-4-4-4-4-4-4-4-4-3-4-6-6-5-7-7-|
D|-0-0---0-0---0-------------------------------------------------------|
A|-----------------4-4---4-4---4---------------------------------------|
E|---------------------------------------------------------------------|

e|-----3-----3---3-----5-----5---5--------------------------------|
B|-----3-----3---3-----5-----5---5-------------8-7-5--------------|
G|---------------------------------------------7-6-4--------------|
D|-0-0---0-0---0--------------------------------------------------|
A|-----------------4-4---4-4---4----------------------------------|
E|---------------------------------0-3-2-0---0--------------------|

[bridge 2]
e|--------------------------------------0-------12--12--------|
B|--------------------------------------0---------15----------|
G|---------------------------\\\--------0-----------------12~-|
D|-----------------------2~--\\\--------2---------------------|
A|--------------------------------------2---------------------|
E|-0----------------(0)----------3-2-0--0---------------------|

[Order]
[intro]

[verse intro]
[verse]
[pre-chorus]

[post-chorus]
[verse]
[pre-chorus]

[post-chorus 2 x2]
[guitar solo]
[bridge]

[post-chorus]
[post-chorus 3]
[bridge 2]

************************************

| /  slide up
| \  slide down
| h  hammer-on
| p  pull-off
| ~  vibrato
| +  harmonic
| x  Mute note

************************************
Suggest correction
Give kudos to tab author, rate the tab!
1 2 3 4 5
comments
print report bad tab
guest
You may want to rate the tab now too:
select rating
Wanna post a correction for this tab? Suggest correction