Oops, an error
Loading. Please wait.

Because We Can Tab

version 1
version 1

Intro

Whole song

Interactive

6,344 views 3 this week
1 commentread comment
1 2 3 4 5
accurate
x 4
add to favorites
launch autoscroll
font size
0
reset
how to read this tab
guitar tuner
Autoscroll
slow
fast
+/-
esc
set tempo
stop
Help us to improve Ultimate-Guitar.com Take our survey!
×
Author
e-5-----5-5H6---6-5--|--5-5H6---6-5----------------|
B---6---------6---------------5--------------------|
G-----5-----------------------------5-5-7-5-3-5----|
D--------------------------------------------------|
A--------------------------------------------------|
E--------------------------------------------------|
Suggest correction
What's this?
You can suggest a correction to this tab. Community and Mods will review your correction and vote to approve or reject it.
comments
print report bad tab
1 comment total.
0 reply
Susanne S 512 wrote on March 12 2013, 03:22 pm

e-5-----5-|5H6------6-5------|-5H6------6-5------|-3-5-3---3-------|
B---6-----|----6--------6----|-----5--------6----|-------6--5------|
G-----5---|------5--------5--|--------6-------5--|------------5----|
D---------|------------------|-------------------|-----------------|
A---------|------------------|-------------------|-----------------|
E---------|------------------|-------------------|-----------------|

e-5-----5-|5H6------6-5------|-5H6------6-5------|-----------------|---|
B---6-----|----6--------6----|-----6--------6----|-------------3-4-|5--|
G-----5---|------5--------5--|--------5-------5--|-------2-3-5-----|---|
D---------|------------------|-------------------|-2-3-5-----------|---|
A---------|------------------|-------------------|-----------------|---|
E---------|------------------|-------------------|-----------------|---|

e---------------------|
B-13^13^-13-10--------|
G--------------12^-10-|
D---------------------|
A---------------------|
E---------------------|

guest
You may want to rate the tab now too:
select rating
Please do not post tabs as comments. Select "correction" instead!