Oops, an error
Loading. Please wait.

Because We Can Tab

version 1
version 1

Intro

Solo

Whole song

Interactive

11,505 views 9 this week
no commentswrite comment
1 2 3 4 5
excellent!
x 7
add to favorites
launch autoscroll
font size
0
reset
how to read this tab
guitar tuner
Tab Pro tools
  • play this tab
  • loop segment
  • change instrument
  • show fretboard
  • metronome
×
Best way to learn
"Because We Can"
Autoscroll
slow
fast
+/-
esc
set tempo
stop
Contributor
Difficulty
novice
Title: Because We Can
SubTitle: Solo
Artist: Bon Jovi
Album: What About Now
Tempo = 110
Electric Guitar

Legend
L - tied note
x - dead note
h - hammer on/pull off
b - bend
s - slide
~ - vibrato
g - ghost note
> - accentuated note
t - trill
M - palm mute
. - staccato
P - popping (bass)
S - slapping (bass)
+ - tapping
W - wide vibrato
< - fade in
w - whammy bar
= - tremolo picking
v - brush up
^ - brush down
V - pick stroke up
n - pick stroke down



     ^
E |--5----------5---|---5h6-----------6--5----------|
B |--6---6----------|---------6-------------6-------|
G |--5-------5------|-------------5------------5----|
D |-----------------|-------------------------------|
A |-----------------|-------------------------------|
E |-----------------|-------------------------------|

E |---5h6-----------6--5----------|--3--5--3-----3-------------|
B |---------6-------------6-------|--5--5--5--6-----5----------|
G |-------------5------------5----|--------------------5-------|
D |-------------------------------|----------------------------|
A |-------------------------------|----------------------------|
E |-------------------------------|----------------------------|




     ^
E |--5----------5---|---5h6-----------6--5----------|
B |--6---6----------|---------6-------------6-------|
G |--5-------5------|-------------5------------5----|
D |-----------------|-------------------------------|
A |-----------------|-------------------------------|
E |-----------------|-------------------------------|

E |---5h6-----------6--5----------|----------------------------|
B |---------6-------------6-------|--------------------3--4----|
G |-------------5------------5----|-----------2--3--5----------|
D |-------------------------------|--2--3--5-------------------|
A |-------------------------------|----------------------------|
E |-------------------------------|----------------------------|

E |--------8b10-----8-5--------------|-------||
B |--5------------------8b10rb8-6----|--6----||
G |-------------------------------7--|-------||
D |----------------------------------|-------||
A |----------------------------------|-------||
E |----------------------------------|-------||

comments
print report bad tab
I want to post or [tab]
guest
You may want to rate the tab now too:
select rating
Please do not post tabs as comments. Select "correction" instead!