Oops, an error
Loading. Please wait.

Blaze Of Glory Chords

version 1
version 1

Whole song

Interactive

294,383 views 387 this week
10 commentsread comments
1 2 3 4 5
excellent!
x 131
add to favorites
launch autoscroll
font size
0
reset
transpose
0
reset
display chords
guitar tuner
Autoscroll
slow
fast
+/-
esc
set tempo
stop
Help us to improve Ultimate-Guitar.com Take our survey!
×
[Intro]

e|----------------------------------------------------------------------|
B|----------------8---10------------------------------------------------|
G|8-10h-10----10----------10------------8-----8-------------------------|
D|--------------------------------9-10h-----------9---10--7-------------| x2
A|----------------------------------------------------------------------|
E|----------------------------------------------------------------------|


[Verse 1]       

I [Dm] wake up in the morning
And I [C] raise my weary head
I've got an [G] old coat for a pillow
And the [Dm] earth was last night's bed
I [F] don't know where I'm going
Only [C] God knows where I've been
I'm a [G] devil on the run
A six gun lover
A [Dm] candle in the wind


[Instrumental]

e|----------------------------------------------------------------------|
B|----------------8---10------------------------------------------------|
G|8-10h-10----10----------10------------8-----8-------------------------|
D|--------------------------------9-10h-----------9---10--7-------------| x2
A|----------------------------------------------------------------------|
E|----------------------------------------------------------------------|


[Verse 2]

When you've [Dm] brought into this world
They [C] say you're born in sin
Well at [G] least they gave me something
I didn't have to [Dm] steal or have to win
Well they [F] tell me that I'm wanted
Yeah, [C] I'm a wanted man
I'm a [G] colt in your stable
I'm what Cain was to Abel
Mister [Dm] catch me if you can


[Chorus]

I'm going [G] down in a blaze of [D] glory
Take me [G] now but know the [D] truth
I'm going [G] out in a blaze of [D] glory
Lord I [C] never drew first
But I drew first blood
I'm [G] no one's sone
Call me young gun


[Instrumental]

e|----------------------------------------------------------------------|
B|----------------8---10------------------------------------------------|
G|8-10h-10----10----------10------------8-----8-------------------------|
D|--------------------------------9-10h-----------9---10--7-------------|  
A|----------------------------------------------------------------------|
E|----------------------------------------------------------------------|


[Verse 3]

You [Dm] ask about my conscience
And I [C] offer you my soul
You ask if I'll [G] grow to be a wise man
Well I [Dm] ask if I'll grow old
You [F] ask me if I've known love
And what it's like to [C] sing songs in the rain
Well, I've [G] seen love come
And I've seen it shot down
I've [Dm] seen it die in vain


[Chorus]

Shot [G] down in a blaze of [D] glory
Take me [G] now but know the [D] truth
'Cause I'm going [G] down in a blaze of [D] glory
Lord I [C] never drew first
But I drew first blood
I'm the [G] devil's son
Call me young gun


[Instrumental]

e|----------------------------------------------------------------------|
B|----------------8---10------------------------------------------------|
G|8-10h-10----10----------10------------8-----8-------------------------|
D|--------------------------------9-10h-----------9---10--7-------------| x2
A|----------------------------------------------------------------------|
E|----------------------------------------------------------------------|


[Solo]

G D G D
G D C G 


[Instrumental]

e|----------------------------------------------------------------------|
B|----------------8---10------------------------------------------------|
G|8-10h-10----10----------10------------8-----8-------------------------|
D|--------------------------------9-10h-----------9---10--7-------------| x2
A|----------------------------------------------------------------------|
E|----------------------------------------------------------------------|


[Verse 4]

Each [Dm] night I go to bed
I pray the [C] Lord my soul to keep
No I ain't [G] looking for forgiveness
But be[Dm]fore I'm six foot deep
Lord, I [F] got to ask a favor
And I [C] hope you'll understand
'Cause I've [G] lived life to the fullest
Let this [Dm] boy die like a man
[G] Staring down a bullet
Let me [Dm] make my final stand


[Chorus]

Shot [G] down in a blaze of [D] glory
Take me [G] now but know the [D] truth
I'm going [G] out in a blaze of [D] glory
Lord I [C] never drew first
But I drew first blood
and I'm [G] no one's son
Call me young [D] gun [C]
I'm a young [G] gun [D]
[[ch]D[/ch]] [[ch]C[/ch]] [[ch]G[/ch]]


[Outro]

e|----------------------------------------------------------------------|
B|----------------8---10------------------------------------------------|
G|8-10h-10----10----------10------------8-----8-------------------------|
D|--------------------------------9-10h-----------9---10--7-------------| x2
A|----------------------------------------------------------------------|
E|----------------------------------------------------------------------|



************************************

| h  Hammer-on

************************************
Suggest correction
What's this?
You can suggest a correction to this tab. Community and Mods will review your correction and vote to approve or reject it.
comments
print report bad tab
10 comments total. Showing first comments.
0 reply
scott.fischer.3 14 wrote on May 25 2013, 12:38 pm

AWESOME! Sounds great man!

0 reply
KEITH NAHDEE 121 wrote on April 28 2014, 12:57 am

YA, IT SOUNDS COOL MAN

0 reply
tinker67 41 wrote on December 19 2014, 08:11 pm

its not GREAT MAN at all, its IM A GOT IN MY STABLE, AND you missed the main part of the of riff

guest
You may want to rate the tab now too:
select rating
Please do not post tabs as comments. Select "correction" instead!