Oops, an error
Loading. Please wait.

Brokenpromiseland Tab

version 2
version 2

Whole song

1,288 views 9 this week
no commentswrite comment
1 2 3 4 5
accurate
x 2
add to favorites
launch autoscroll
font size
0
reset
how to read this tab
guitar tuner
Tab Pro tools
  • play this tab
  • loop segment
  • change instrument
  • show fretboard
  • metronome
Autoscroll
slow
fast
+/-
esc
set tempo
stop
Contributor
Difficulty
intermediate
-------------------------------------------------------------------------------
                             Broken Promiseland - Bon Jovi
-------------------------------------------------------------------------------
Tabbed by:pelanmar
Email:pelanmar@yahoo.com

Tuning:standard

Intro:
Not shure about he end....anyway its on keyboard
e|--5-5---5-5---7------------------------------------------------------------|
B|------7---------7--5--5--5--3--5--5--7--3--1-------------------------------|
G|---------------------------------------------------------------------------|
D|---------------------------------------------------------------------------|
A|---------------------------------------------------------------------------|
E|---------------------------------------------------------------------------|


e|---------------------------------------------------------------------------------|
B|---------------------------------------------------------------------------------|
G|-----1-----4----1---4------------------------------------------------------------|
D|-----2-----4----1---4------------------------------------------------------------|
A|-----2-----2----2---2------------------------------------------------------------|
E|---------------------------------------------------------------------------------|

Verse: listen for the rythem
e|------------------------------------------------------------------------------|
B|------------------------------------------------------------------------------|
G|------------------------------------------------------------------------------|
D|----9-------------------------------------------------------------------------|
A|----9-------------------------------------------------------------------------|
E|----7-------------------------------------------------------------------------|

chorus:

the third time i believe...does not have the last E chord just skip it...
e|---------------------------------------------------------------------------------|
B|-----------------1---------------------------------------------------------------|
G|----4------7-----2---1-----------------------------------------------------------|
D|----4------7-----2---2-----------------------------------------------------------|
A|----2------5---------2-----------------------------------------------------------|
E|---------------------------------------------------------------------------------|

Solo:
Sounds ok to me...
e|---------------------------------------------------------------------------|
B|---------------------------------------------------------------------------|
G|---------------------------------------------------------------------------|
D|---------------------------------------------------------------------------|
A|---2-2-0-2-4-5-5+--4--2---4---4-5--4---0--2--------------------------------|
E|---------------------------------------------------------------------------|

e|---------------------------------------------------------------------------|
B|------------------------------------------9/11--11/12--12--12-12-----------|
G|-----------------------6--7--7/9---9/11------------------------------------|
D|----7h9p7---9--9--7-9------------------------------------------------------|
A|-/9-------9----------------------------------------------------------------|
E|---------------------------------------------------------------------------|

come on now...crazy bends in B pentatonic...and than...just rising up in that scale
e|----------------------------------10b--------------------------------------|
B|------7----7---10p7--------------------------------------------------------|
G|---9b---9b-----------------------------------------------------------------|
D|---------------------repeat than-------------------------------------------|
A|---------------------------------------------------------------------------|
E|---------------------------------------------------------------------------|

Hope you like it...

************************************

| /   slide up
| \   slide down
| h   hammer-on
| p   pull-off
| ~   vibrato
| +   harmonic
| x   Mute note
| b   Bend
| pb  Pre-bend
| br  Bend release
comments
We did not receive enough feedback on this tab! Please rate:
print report bad tab
1 2 3 4 5
I want to post or [tab]
guest
You may want to rate the tab now too:
select rating
Please do not post tabs as comments. Select "correction" instead!