Oops, an error
Loading. Please wait.

Bullet Tab

version 1
version 1

Whole song

Interactive

2,992 views 6 this week
no commentswrite comment
1 2 3 4 5
accurate
x 1
add to favorites
launch autoscroll
font size
0
reset
how to read this tab
guitar tuner
Tab Pro tools
  • play this tab
  • loop segment
  • change instrument
  • show fretboard
  • metronome
Autoscroll
slow
fast
+/-
esc
set tempo
stop
Contributor
Difficulty
intermediate
-------------------------------------------------------------------------------
                             Bullet - Bon Jovi
-------------------------------------------------------------------------------
Tabbed by:pelanmar      
Email:pelanmar@yahoo.com

Tuning:Standard

This great song hasn´t been tabd yet...its with high distortion and in the solo
there is the use of a wah wah pedal...VERY IMPORTANT!!! THIS IS MY VERSION OF THE 
SOLO!!! NOT SAYING IT IS THE OFFICIAL!!! BUT I BELIEVE ITS THE ONLY ONE SO FAR
AND I LIKE HOW IT SOUNDS!!!

Intro:
 *REPEAT THIS 3 TIMES AND IN THE 4TH JUST STRUM THE CHORD*
e|---------------------------------------------------------------------------|
B|---------------------------------------------------------------------------|
G|--------6---6----6X--6X----------------------------------------------------|
D|--------6---6----6X--6X----------------------------------------------------|
A|--------4---4----4X--4X----------------------------------------------------|
E|---------------------------------------------------------------------------|

vERSE:
 
e|---------------------------------------------------------------------------|
B|---------------------------------------------------------------------------|
G|------6----9----4----------------------------------------------------------|
D|------6----9----4----4-----------------------------------------------------|
A|------4----7----2----4-----------------------------------------------------|
E|---------------------2-----------------------------------------------------|

BRIDGE:

e|---------------------------------------------------------------------------|
B|---------------------------------------------------------------------------|
G|------6----4---------------------------------------------------------------|
D|------6----4---4----7------------------------------------------------------|
A|------4----2---4----7------------------------------------------------------|
E|---------------2----5------------------------------------------------------|

FOR CHORUS PLAY: 1 VERSE, 1 BRIDGE, 1 VERSE, 1 BRIDGE

SOLO: TURN WAH UN!
e|---------------------------------------------------------------------------|
B|---------------------------------------------------------------------------|
G|---------------------------------------------------------------------------|
D|-------------------------------------2---2---------------------------------|
A|-----2---4---2---4---2--4----2---4-----------2--4--2--4--2--4-2-4----------|
E|-------------------------------------------------------------------4--4----|

e|---------------------------------------------------------------------------|
B|---------------------------------------------------------------------------|
G|---------------------------------------------------------------------------|
D|-----------------------------------------------------------2---4-----------|
A|--------2X------4X--------2X------4X--------2X---------4-------------------|
E|----0X------0X--------0X------0X-------0X--------0X------------------------|

NOT SHURE ABOUT THIS PART
e|---------------------------------------------------------------------------|
B|---------------------------------------------------------------------------|
G|---------------------------------------------------------------------------|
D|----------9--11--11b-------9--11--11b------9--11--11b------9--11--11b------|
A|----9h11--------------9h11------------9h11------------9h11-----------------|
E|---------------------------------------------------------------------------|

e|---------------------------------------------------------------------------|
B|-----12p9------12p9----12p9-12p9-----12p9----12p9-12p9-------12p9----------|
G|-----------11-------11------------11------11------------11---------11------|
D|---------------------------------------------------------------------------|
A|---------------------------------------------------------------------------|
E|---------------------------------------------------------------------------|

e|---------------------------------------------------------------------------|
B|-----12p9-----12b----------------------------------------------------------|
G|---------------------------------------------------------------------------|
D|---------------------------------------------------------------------------|
A|---------------------------------------------------------------------------|
E|---------------------------------------------------------------------------|

Enjoy.!!
************************************

| /   slide up
| \   slide down
| h   hammer-on
| p   pull-off
| ~   vibrato
| +   harmonic
| x   Mute note
| b   Bend
| pb  Pre-bend
| br  Bend release
| pbr Pre-bend release
| brb Bend release bend

************************************
comments
We did not receive enough feedback on this tab! Please rate:
print report bad tab
1 2 3 4 5
I want to post or [tab]
guest
You may want to rate the tab now too:
select rating
Please do not post tabs as comments. Select "correction" instead!