Oops, an error
Loading. Please wait.

Come On Up To Our House chords

version 2
version 2

Whole song

397 views 9 this week
no commentswrite comment
1 2 3 4 5
2 more votes to show rating
add to favorites
×
Save as Personal and add changes to this tab that will be seen only by you. Learn more ›
×
You can save this tab as Personal to edit and correct it or add notes. All changes will be seen only by you. Learn more »
launch autoscroll
font size
0
reset
transpose
0
reset
simplify chords
display chords
guitar tuner
edit
Autoscroll
slow
fast
+/-
esc
set tempo
stop
Author
Difficulty
Strumming
There is no strumming pattern for this song yet. and get +5 IQ
BON JOVI – Come On Up To Our House
from the “This House Is Not for Sale” album (2016)

[Intro]
F       C/E   Dm         C     
Come on up to our house
       Bb               F
Let us make you feel at home
F       C/E   Dm         C
Come on up to our house
       Bb
I will leave the porch light...

[Lick]
   F           C/E         Dm          C           Bb
e|----------------------------------------------------------|
B|-13--10--------------10--13-10---------------10-----------|
G|---------12--10--12--------------12--10--12---------------|
D|-------------------------------------------------12~~~~---| 
A|----------------------------------------------------------|
E|----------------------------------------------------------| x2

[Verse 1]
         F                   Dm
I wish tonight would last forever
    Bb                  C
And it would never end
        F             Dm
We were introduced as strangers
          Bb              C
Now we're leaving here as friends
      Dm                       Bb
Every word that you speak is a melody
         F                        Bb
As we're writing the songs of our lives
Dm                      Bb
Everyone knows we don't want to go home
       F                 C
But we can't stay here tonight

[Chorus 1]
F       C/E   Dm         C     
Come on up to our house
       Bb               F
Let us make you feel at home
F       C/E   Dm         C
Come on up to our house
       Bb                    C
I will leave the porch light on
        Dm             Bb
All are welcome at our table
          F     C/E      Gm
You could never stay too long
F       C/E   Dm         C
Come on up to our house
       Bb
I will leave the porch light on

[Lick]
   F           C/E         Dm          C           Bb
e|----------------------------------------------------------|
B|-13--10--------------10--13-10---------------10-----------|
G|---------12--10--12--------------12--10--12---------------|
D|-------------------------------------------------12~~~~---| 
A|----------------------------------------------------------|
E|----------------------------------------------------------| 

[Verse 2]
          F                 Dm
You could tell me your life story
        Bb                  C
I could finish every line
    F                      Dm
The one about hurt and the heartache
         Bb            C
It still gets me every time
      Dm                         Bb
Every word that you speak is the harmony
       F                       Bb
To the song that I'm singing inside
Dm                      Bb
Everyone knows we don't want to go home
       F                 C
But we can't stay here tonight

[Chorus 2]
F       C/E   Dm         C     
Come on up to our house
       Bb               F
Let us make you feel at home
F       C/E   Dm         C
Come on up to our house
       Bb                    C
I will leave the porch light on
        Dm             Bb
All are welcome at our table
          F     C/E      Gm
You could never stay too long
F       C/E   Dm         C
Come on up to our house
       Bb
I will leave the porch light on

[Guitar Solo]
   F                  C/E              Bb                   C  
e|-----------------------------------|-----------------------------------|
B|--------------------13~~--15b(17)--|-(17)r(15)~~--13pb(15)r(13)~~------|
G|-----------10h12/14----------------|-------------------------------10--|
D|-------10--------------------------|-----------------------------------| 
A|-10h12-----------------------------|-----------------------------------|
E|-----------------------------------|-----------------------------------| 

   F                   Dm                      C
e|-------------------------------------------|-12pb(13)r(12)-----------17pb(18)r(17)-----------------|
B|-------------------------------------------|---------------13----------------------18--------------|
G|-12b(14)~~-(14)r(12)-12b(14)r(12)p10-------|------------------12~~---------------------17p15\14~~--|
D|-------------------------------------12~~--|-------------------------------------------------------|
A|-------------------------------------------|-------------------------------------------------------|
E|-------------------------------------------|-------------------------------------------------------|

[Verse 3]
         F                   Dm
I wish tonight could last forever
        Bb
Cause I ain't good at saying goodbye
F                       Dm
Everyone knows we don't want to go home
       Bb                C
But we can't stay here tonight

[Chorus 3]
F       C/E   Dm         C     
Come on up to our house
       Bb               F
Let us make you feel at home
F       C/E   Dm         C
Come on up to our house
       Bb                    C   A/C#
I will leave the porch light on
        Dm               Bb
For the restless and the weary
         F         Bb
You will never be alone
        Dm             Bb
All are welcome at our table
          F              Bb
You could never stay too long
   F       C/E       Dm     C
So come on up to our house
       Bb
I will leave the porch light on

[Lick]
   F           C/E         Dm          C           Bb
e|----------------------------------------------------------|
B|-13--10--------------10--13-10---------------10-----------|
G|---------12--10--12--------------12--10--12---------------|
D|-------------------------------------------------12~~~~---| 
A|----------------------------------------------------------|
E|----------------------------------------------------------| x4

            
            
Suggest correction
Creating personal tab
Creating personal tab
You can edit any tab online and save it as your Personal.

You can edit, replace or remove any tab part or add personal notes – all changes will be seen only by you.

Personal tabs can be accessed anytime from any device, even offline.
Learn more »
Give kudos to tab author, rate the tab!
1 2 3 4 5
comments
print report bad tab
guest
You may want to rate the tab now too:
select rating
Wanna post a correction for this tab? Suggest correction