Oops, an error
Loading. Please wait.
We have an official Have A Nice Day tab made by UG professional guitarists. Check out the tab »
×
2,401 views 1 this week
2 commentsread comments
1 2 3 4 5
x 4
add to favorites
×
Save as Personal and add changes to this tab that will be seen only by you. Learn more ›
×
You can save this tab as Personal to edit and correct it or add notes. All changes will be seen only by you. Learn more »
launch autoscroll
font size
0
reset
guitar tuner
backing track
0:00
0:00
edit
Autoscroll
slow
fast
+/-
esc
set tempo
stop
Author
Difficulty
-------------------------------------------------------------------------------
                             Bon Jovi - Have a Nice Day
-------------------------------------------------------------------------------

Tabbed by: TBone142
e-mail: tbone142@freemail.hu

Tuning: standard BEADG

Intro (00:04-):
G|---------------------------------------------------------------------------|
D|---------------------------------------------------------------------------|
A|---------------------------------------------------------------------------|
E|-------------5-5-5-------7-7-7-7-------------5-5-5-------7---7---9\--------|
B|-2-2-2-5-5-5-------5-5-5---------2-2-2-5-5-5-------5-5-5-------------------|

Verse:
G|---------------------------------------------------------------------------|
D|---------------------------------------------------------------------------|
A|-4--4-4--------------------7\6----------------4--4-4-----------------------|
E|---------------5--5-5-7--------9\---------------------------5--5-5--7--7---|
B|--------5--5-5---------------------------------------5--5-5----------------|

Pre-chorus:
G|---------------------------------------------------------------------------|
D|---------------------------------------------------------------------------|
A|---------------------------------------------------------------------------|
E|-9-9-9-9-9-9-9-9-9-9-9-9-9-9-----------------------------------------------|
B|-----------------------------9-7-5-5-5-5-5-5-5-5-5-5-5-5-7-7-9-------------|

G|---------------------------------------------------------------------------|
D|---------------------------------------------------------------------------|
A|---------------------------------------------------------------------------|
E|-----------------------------7-7-5-5-5-5-5-5-5-5-5---5---5---5-------------|
B|-7-7-7-7-7-7-7-7-7-7-7-7-9-9-----------------------5---5---5---5-----------|

Chorus:
G|---------------------------------------------------------------------------|
D|--------------4-7-7-7-7-7-7------------------------------------------------|
A|-4--4-4-4-6-7---------------6-7-----------------------------6--------------|
E|------------------------------------------------7-7-7-7-7-9---9------------|
B|--------------------------------5-5-5-5-5-5-7-5----------------------------|

G|---------------------------------------------------------------------------|
D|------6--6----7-7-7-7-7-7---9----------------------------------------------|
A|-4--4------6--------------7---7-7-7-7-7-7-6-4-------------6----------------|
E|----------------------------------------------7-7-7-7-7-9---9--------------|
B|---------------------------------------------------------------------------|

G|---------------------------------------------------------------------------|
D|---------------------------------------------------------------------------|
A|---------------------------------------------------------------------------|
E|-----------------5-5-5-5-5-5-4-7-----------------7-7-7-7-7-7-7-------------|
B|-2-2-2-2-2-2-2-2-----------------5-5-5-5-5-5-7-5---------------9-7---------|

G|---------------------------------------------------------------------------|
D|---------------------------------------------------------------------------|
A|---------------------------------------------------------------------------|
E|-----------------------------7--5--5---------------------------------------|
B|-7-7-7-7-7-7-7-7-7-7-7-7-9-9-----------------------------------------------|

Bridge:
G|---------------------------------------------------------------------------|
D|---------------------------------------------------------------------------|
A|---------------------------------------------------------------------------|
E|-------------5-5-5--------7---7\--------------5-5-5------------------------|
B|-2-2-2-5-5-5-------5-5-5/---------2-2-2-5-5-5-------5-5-5-4--0-------------|

Verse:
G|---------------------------------------------------------------------------|
D|---------------------------------------------------------------------------|
A|-4--4-4--------------------7\-----------------4--4-4-----------------------|
E|---------------5--5-5-7--------9\---------------------------5--5-5--7--7---|
B|--------5--5-5---------------------------------------5--5-5----------------|

Pre-chorus:
G|---------------------------------------------------------------------------|
D|---------------------------------------------------------------------------|
A|---------------------------------------------------------------------------|
E|-9-9-9-9-9-9-9-9-9-9-9-9-9-9-----------------------------------7-----------|
B|-----------------------------9-7-5-5-5-5-5-5-5-5-5-5-5-5-7-9-9-------------|

G|---------------------------------------------------------------------------|
D|---------------------------------------------------------------------------|
A|---------------------------------------------------------------------------|
E|-----------------------------7-5-5-5-5-5-5-5-5-5-5-5-5-5-5-5-5-------------|
B|-7-7-7-7-7-7-7-7-7-7-7-7-9-9-----------------------------------------------|

Chorus:
G|---------------------------------------------------------------------------|
D|--------------4-7-7-7-7-7-7------------------------------------------------|
A|-4--4-4-4-6-7---------------6-7-----------------------------6--------------|
E|------------------------------------------------7-7-7-7-7-9---9------------|
B|--------------------------------5-5-5-5-5-5-7-5----------------------------|

G|---------------------------------------------------------------------------|
D|------6--6----7-7-7-7-7-7---9----------------------------------------------|
A|-4--4------6--------------7---7-7-7-7-7-7-6-4-------------6----------------|
E|----------------------------------------------7-7-7-7-7-9---9--------------|
B|---------------------------------------------------------------------------|

G|---------------------------------------------------------------------------|
D|---------------------------------------------------------------------------|
A|---------------------------------------------------------------------------|
E|-----------------5-5-5-5-5-5-4-7-----------------7-7-7-7-7-7-7-------------|
B|-2-2-2-2-2-2-2-2-----------------5-5-5-5-5-5-7-5---------------9-7---------|

G|---------------------------------------------------------------------------|
D|---------------------------------------------------------------------------|
A|---------------------------------------------------------------------------|
E|-----------------------------7--5--5---------------------------------------|
B|-7-7-7-7-7-7-7-7-7-7-7-7-9-9-----------------------------------------------|

Bridge:
G|---------------------------------------------------------------------------|
D|---------------------------------------------------------------------------|
A|---------------------------------------------------------------------------|
E|-------------5-5-5--------7---7\--------------5-5-5------------------------|
B|-2-2-2-5-5-5-------5-5-5/---------2-2-2-5-5-5-------5-5-5-4--0-------------|

Solo:
G|---------------------------------------------------------------------------|
D|---------------------------------------------------------------------------|
A|---------------------------------------------------------------6-----------|
E|-----------------5-5-5-5-5-5-5-5-----------------7-7-7-7-7-7-9-------------|
B|-2-2-2-2-2-2-2-2-----------------5-5-5-5-5-5-5-5---------------------------|

G|---------------------------------------------------------------------------|
D|---------------------------------------------------------------------------|
A|---------------------------------------------------------------------------|
E|-----------------5-5-5-5-5-5-5-5-----------------7-7-7-7-7-7---------------|
B|-2-2-2-2-2-2-5-2-----------------5-5-5-5-5-5-4-2-------------9-7-----------|

G|---------------------------------------------------------------------------|
D|---------------------------------------------------------------------------|
A|---------------------------------------------------------------------------|
E|-----------------------------7--5--5---------------------------------------|
B|-7-7-7-7-7-7-7-7-7-7-7-7-9-9-----------------------------------------------|

Chorus (02:50-):
G|---------------------------------------------------------------------------|
D|--------------4-7-7-7-7-7-7------------------------------------------------|
A|-4--4-4-4-6-7---------------6-7-----------------------------6--------------|
E|------------------------------------------------7-7-7-7-7-9---9------------|
B|--------------------------------5-5-5-5-5-5-7-5----------------------------|

G|---------------------------------------------------------------------------|
D|------6--6----7-7-7-7-7-7---9----------------------------------------------|
A|-4--4------6--------------7---7-7-7-7-7-7-6-4-------------6----------------|
E|----------------------------------------------7-7-7-7-7-9---9--------------|
B|---------------------------------------------------------------------------|

G|---------------------------------------------------------------------------|
D|---------------------------------------------------------------------------|
A|---------------------------------------------------------------------------|
E|-----------------5-5-5-5-5-5-4-7-----------------7-7-7---7-7-7-------------|
B|-2-2-2-2-2-2-2-2-----------------5-5-5-5-5-5-7-5-------7-------9-7---------|

G|---------------------------------------------------------------------------|
D|---------------------------------------------------------------------------|
A|---------------------------------------------------------------------------|
E|-----------------------------7--5--5---------------------------------------|
B|-7-7-7-7-7-7-7-7-7-7-7-7-9-9-----------------------------------------------|

Outro:
G|---------------------------------------------------------------------------|
D|---------------------------------------------------------------------------|
A|---------------------------------------------------------------------------|
E|-------------5-5-5--------7---7\--------------5-5-5------------------------|
B|-2-2-2-5-5-5-------5-5-5/---------2-2-2-5-5-5-------5-5-5-4--4-------------|

G|---------------------------------------------------------------------------|
D|---------------------------------------------------------------------------|
A|---------------------------------------------------------------------------|
E|-------------5-5-5------------7\--------------5-5-5------------------------|
B|-2-2-2-5-5-5-------5-5-5--5-------2-2-2-5-5-5-------5-5-5-0--0-------------|

G|---------------------------------------------------------------------------|
D|---------------------------------------------------------------------------|
A|---------------------------------------------------------------------------|
E|-------------5-5-5----------------------------5-5-5-------7--7-------------|
B|-2-2-2-5-5-5-------5-5-5--0--0----2-2-2-5-5-5-------5-5-5------------------|

G|---------------------------------------------------------------------------|
D|---------------------------------------------------------------------------|
A|---------------------------------------------------------------------------|
E|-------------5-5-5---------7--7---------------5-5-5-------7----------------|
B|-2-2-2-5-5-5-------5-5-5----------2-2-2-5-5-5-------5-5-5------------------|


===============================================================================
Notes: 

If You have problems with this tab, write Me a mail what's wrong with it
instead of giving it a bad rating! It'd be better for everyone! Thx!


| /  slide up
| \  slide down
| h  hammer-on
| p  pull-off
| ~  vibrato
| +  harmonic
| x  Mute note
===============================================================================

            
            
Suggest correction
Creating personal tab
Creating personal tab
You can edit any tab online and save it as your Personal.

You can edit, replace or remove any tab part or add personal notes – all changes will be seen only by you.

Personal tabs can be accessed anytime from any device, even offline.
Learn more »
comments
print report bad tab
2 comments total.
0 reply
Kaseke 398 Jan 14, 2014 11:48 AM

There's a lot of unnecessary jumping on the fretboard :/ But the tab is absolutely amazing otherwise :) 5 stars out of 5

guest
You may want to rate the tab now too:
select rating
Wanna post a correction for this tab? Suggest correction