Oops, an error
Loading. Please wait.

Its My Life Tab

version 1
version 1
346,999 views 672 this week
6 commentsread comments
1 2 3 4 5
accurate
x 27
add to favorites
launch autoscroll
font size
0
reset
how to read this tab
guitar tuner
Tab Pro tools
  • play this tab
  • loop segment
  • change instrument
  • show fretboard
  • metronome
Autoscroll
slow
fast
+/-
esc
set tempo
stop
Contributor
Bon Jovi - It's My Life

I believe this song is actually played on a seven-string or a baritone, but I
tabbed it for a standard guitar. If you do have one, play the C power chords low.

INTRO:
E|-----------|-----------|-----------|-----------|
B|-----------|-----------|-----------|-----------|
G|-5--5------|-----------|-5--5------|-----------|
D|-5--5------|-----------|-5--5------|-----------|
A|-3--3------|-----------|-3--3------|-----------|
E|-----------|-----------|-----------|-----------|

VERSE:
E|-----------|-----------|--------------|-----------|
B|-----------|-----------|--------------|-----------|
G|*5-(5)-----|-----------|-5--5-x-x-5-5-|----------*|
D|*5-(5)-----|-----------|-5--5-x-x-5-5-|----------*|
A|-3-(3)-----|-----------|-3--3-x-x-3-3-|-----------|
E|-----------|-----------|--------------|-----------|
     (^ play only at the second time)

PRE-CHORUS:
E|-----------|-----------|-----------|-----------|------|
B|-----------|-----------|-----------|-----------|------|
G|-5=========|======-x-x-|-----------|-----------|-rest-|
D|-5=========|======-x-x-|-3--3------|-----------|------|
A|-3=========|======-x-x-|-3--3------|-----------|------|
E|-----------|-----------|-1--1------|-----------|------|

CHORUS:
E|-------------|-------------|-------------|-------------|
B|-------------|-------------|-------------|-------------|
G|*5========-5-|-5========-5-|-8========-8-|-7========-7-|
D|*5========-5-|-6========-6-|-8========-8-|-8========-8-|
A|-3========-3-|-6========-6-|-6========-6-|-5========-5-|
E|-------------|-4========-4-|-------------|-------------|

E|-------------|-------------|-------------|-------------|
B|-------------|-------------|-------------|-------------|
G|-5========-5-|-5==========-|-------------|------------*|
D|-5========-5-|-6==========-|-8==========-|------------*|
A|-3========-3-|-6==========-|-8==========-|-------------|
E|-------------|-4==========-|-6==========-|-6=====7=====|

Repeat INTRO
Repeat VERSE
Repeat PRE-CHORUS, at the end let the F power chord ring
Repeat CHORUS

BRIDGE:

1st guitar:
E|---------------|---------------|---------------|
B|---------------|---------------|---------------|
G|*-------------*|*-------------*|*-------------*|
D|*6-6--x-6-6--x*|*8-8--x-8-8--x*|*6-6--x-6-6--x*|
A|-6-6--x-6-6--x-|-8-8--x-8-8--x-|-6-6--x-6-6--x-|
E|-4-4--x-4-4--x-|-6-6--x-6-6--x-|-4-4--x-4-4--x-|

E|---------------|-----------------|
B|---------------|-----------------|
G|---------------|-----------------|
D|-3-3--x-3-3--x-|-3-3-3-3-3-3-3-3-|
A|-3-3--x-3-3--x-|-3-3-3-3-3-3-3-3-|
E|-1-1--x-1-1--x-|-1-1-1-1-1-1-1-1-|
                  P.M. --==release

2nd guitar(solo):
E|-------------------------------------------------------------------|
B|---------------------------------4-6b8---8-8-8b6p4-6---------------|
G|-7b8b7b8-etc........7b8b7p5----5---------------------3-5~~---------|
D|-----------------------------6---------------------------------1---|
A|-------------------------------------------------------------1---1-|
E|-----------------------------------------------------------3-------|

Both guitars:
E|-----------|-----------|-----------|-----------|-----------|
B|-----------|-----------|-----------|-----------|-----------|
G|-5=========|===========|===========|===========|-5--5------|
D|-5=========|===========|===========|===========|-5--5------|
A|-3=========|===========|===========|===========|-3--3------|
E|-----------|-----------|-----------|-----------|-----------|

Repeat CHORUS 4x
comments
print report bad tab
6 comments total. Showing first comments.
+1 reply
erikdd wrote on June 1 2008, 01:04 am

umm... no it's played on a six string electric... but its played through a talk box (wah-wah player) which gives it that distinctive sound.

0 reply
AaronoC2006 wrote on December 29 2008, 07:55 pm

You got the end of the solo wrong...
it should go like this:

E|-------------------------------------------------------------------
B|------------------------------4-6b8---8-8-8b6p4-6-----------------
G|7b8b7b8-etc......7b8b7p5----5---------------------3-5~~-----------
D|--------------------------6---------------------------------1-----
A|----------------------------------------------------------1---1-3-
E|--------------------------------------------------------3---------

0 reply
nesprit wrote on November 17 2014, 03:42 pm

I thonk intro is more like
E|-----------|-----------|-----------|-----------|
B|-----------|-----------|-----------|-----------|
G|-5--5------|-----------|-5--5------|-----------|
D|-5--5------|-----------|-5--5------|-----------|
A|-3--3------|-----------|-3--3------|-----------|
E|-3--3------|-----------|-3--3------|-----------|
And not like
E|-----------|-----------|-----------|-----------|
B|-----------|-----------|-----------|-----------|
G|-5--5------|-----------|-5--5------|-----------|
D|-5--5------|-----------|-5--5------|-----------|
A|-3--3------|-----------|-3--3------|-----------|
E|-----------|-----------|-----------|-----------|

I want to post or [tab]
guest
You may want to rate the tab now too:
select rating
Please do not post tabs as comments. Select "correction" instead!