Oops, an error
Loading. Please wait.
We have an official Its My Life tab made by UG professional guitarists. Check out the tab »
×
184,651 views 84 this week
14 commentsread comments
1 2 3 4 5
x 55
add to favorites
launch autoscroll
font size
0
reset
how to read this tab
guitar tuner
backing track
0:00
0:00
Autoscroll
slow
fast
+/-
esc
set tempo
stop
[Intro]
e|--------------|
B|--------------|
G|--------13-12-|
D|-10-10--13-12-|
A|-10-10--11-10-|
E|-8--8---------|

[Verse]
e|-----------------------|
B|-----------------------|
G|-----------------13-12-|
D|-10-10-10-10-10--13-12-|
A|-10-10-10-10-10--11-10-|
E|-8--8--8--8--8---------|
       PM_____

[Pre-Chorus]
e|----------|
B|----------|
G|-5--------|
D|-5---3----|
A|-3---3----|
E|-----1----|

[Chorus]
e|---------------------------------------------------|
B|---------------------------------------------------|
G|-5-5-5-5-5-5-5-5-5-----------------------8-8-8-8-8-|
D|-5-5-5-5-5-5-5-5-5--6-6-6-6-6-6-6-6-6-6--8-8-8-8-8-|
A|-3-3-3-3-3-3-3-3-3--6-6-6-6-6-6-6-6-6-6--6-6-6-6-6-|
E|--------------------4-4-4-4-4-4-4-4-4-4------------|

e|---------------------------------------------------|
B|---------------------------------------------------|
G|-8-8-8-8-8-------------------5-5-5-5-5-5-5---------|
D|-8-8-8-8-8--8-8-8-8-8-8-8-8--5-5-5-5-5-5-5-6-6-6-6-|
A|-6-6-6-6-6--8-8-8-8-8-8-8-8--3-3-3-3-3-3-3-6-6-6-6-|
E|------------6-6-6-6-6-6-6-6----------------4-4-4-4-|

e|-----------------------------|
B|-----------------------------|
G|---------------------------5-|
D|-6-6-6-6--8-8-8-8-8-8-8-8--5-| X2
A|-6-6-6-6--8-8-8-8-8-8-8-8--3-|
E|-4-4-4-4--6-6-6-6-6-6-6-6----|

[Instrumental]
e|--------------|
B|--------------|
G|--------13-12-|
D|-10-10--13-12-|
A|-10-10--11-10-|
E|-8--8---------|

[Chorus]
e|---------------------------------------------------|
B|---------------------------------------------------|
G|-5-5-5-5-5-5-5-5-5-----------------------8-8-8-8-8-|
D|-5-5-5-5-5-5-5-5-5--6-6-6-6-6-6-6-6-6-6--8-8-8-8-8-|
A|-3-3-3-3-3-3-3-3-3--6-6-6-6-6-6-6-6-6-6--6-6-6-6-6-|
E|--------------------4-4-4-4-4-4-4-4-4-4------------|

e|---------------------------------------------------|
B|---------------------------------------------------|
G|-8-8-8-8-8-------------------5-5-5-5-5-5-5---------|
D|-8-8-8-8-8--8-8-8-8-8-8-8-8--5-5-5-5-5-5-5-6-6-6-6-|
A|-6-6-6-6-6--8-8-8-8-8-8-8-8--3-3-3-3-3-3-3-6-6-6-6-|
E|------------6-6-6-6-6-6-6-6----------------4-4-4-4-|

e|-----------------------------|
B|-----------------------------|
G|---------------------------5-|
D|-6-6-6-6--8-8-8-8-8-8-8-8--5-| X2
A|-6-6-6-6--8-8-8-8-8-8-8-8--3-|
E|-4-4-4-4--6-6-6-6-6-6-6-6----|

[Solo]
e|----------------------------------------------------|
B|----------------------------------------------------|
G|-7-b7-(it's repeated a few times)--5------b10-12(X4)|
D|-------------------------------------8-10-----------|
A|----------------------------------------------------|
E|----------------------------------------------------|

e|-----------------------------|
B|-----------------------------|
G|-10-8-10p8-------------5-----|
D|-----------10------1---5-----|
A|---------------1-3---3-3-----|
E|-----------------------------|

[Chorus]
e|---------------------------------------------------|
B|---------------------------------------------------|
G|-5-5-5-5-5-5-5-5-5-----------------------8-8-8-8-8-|
D|-5-5-5-5-5-5-5-5-5--6-6-6-6-6-6-6-6-6-6--8-8-8-8-8-|
A|-3-3-3-3-3-3-3-3-3--6-6-6-6-6-6-6-6-6-6--6-6-6-6-6-|
E|--------------------4-4-4-4-4-4-4-4-4-4------------|

e|---------------------------------------------------|
B|---------------------------------------------------|
G|-8-8-8-8-8-------------------5-5-5-5-5-5-5---------|
D|-8-8-8-8-8--8-8-8-8-8-8-8-8--5-5-5-5-5-5-5-6-6-6-6-|
A|-6-6-6-6-6--8-8-8-8-8-8-8-8--3-3-3-3-3-3-3-6-6-6-6-|
E|------------6-6-6-6-6-6-6-6----------------4-4-4-4-|

e|-----------------------------|
B|-----------------------------|
G|---------------------------5-|
D|-6-6-6-6--8-8-8-8-8-8-8-8--5-| X2
A|-6-6-6-6--8-8-8-8-8-8-8-8--3-|
E|-4-4-4-4--6-6-6-6-6-6-6-6----|


************************************

| PM  Palm mute
| b   Bend
| p   Pull-off

************************************
Suggest correction
comments
print report bad tab
14 comments total. Showing first comments.
+1 reply
Reapersoul 40 Feb 10, 2007 06:05 AM

Don't bother. It's not a bad attempt, but without the equitment, you're just wasting you're time.

Good attempt at tabs though, to be fair.

+2 reply
/Meta||icA\ 10 Mar 08, 2007 12:03 AM

its not all that bad. wouldnt play it live tho

+1 reply
death eater 87 Aug 25, 2007 05:48 PM

i created a lead part for the intro, and i play it when i play in my band. here it is.

------------------------------
------------------------------
---------------------12-13-12-
---10-10-------12-13----------
---10-10----------------------
----8--8----------------------
P.M.----- P.H.--


P.M.=Palm Mute
P.H.=Pinch Harmonic

i play it that way, but it really depends on the key u play in

guest
You may want to rate the tab now too:
select rating
Wanna post a correction for this tab? Suggest correction