Oops, an error
Loading. Please wait.

Livin On A Prayer Bass Tab

version 1
version 1
259,085 views 534 this week
16 commentsread comments
1 2 3 4 5
excellent!
x 63
add to favorites
launch autoscroll
font size
0
reset
guitar tuner
Tab Pro tools
  • play this tab
  • loop segment
  • change instrument
  • show fretboard
  • metronome
×
Best way to learn
"Livin On A Prayer"
Autoscroll
slow
fast
+/-
esc
set tempo
stop
Difficulty
intermediate
#----------------------------------PLEASE NOTE---------------------------------#
#This file is the author's own work and represents their interpretation of the #
#song. You may only use this file for private study, scholarship, or research. #
#------------------------------------------------------------------------------##
Bon Jovi - Living On a Prayer
from Slippery When Wet

Original Contributor: Unregistered
New Contributor: Teh D Bot
Original tab at bottom

I've made some slight changes to the notes as well as made the tab easier to follow along
while playing

[Intro] 0:14

G|-------------------|
D|o-----------------o|
A|o---7---5-------5-o|x16
E|--0---7---0-0-7----|


[Verse] 0:45
                    x7
G|-------------------|-----------------|
D|o-----------------o|---------5-4-5-4-|
A|o---7---5-------5-o|---7---5---------|
E|--0---7---0-0-7----|-0---7-----------|

1:01                x7
G|-------------------|-----------------|
D|o-----------------o|---------2-4-5---|
A|o---7---5-------5-o|---7---5-------2-|
E|--0---7---0-0-7----|-0---7-----------|


[Pre Chorus] 1:17

G|-----------------|-----------------|-----------------|-----------------|
D|-----------------|-----------------|-----------------|-----------------|
A|-3-3-3-5-5-5-5-5-|-5-5-5-5-7-7-7-\-|-3-3-3-5-5-5-5---|-5-7-9---7-7-7-\-|
E|-----------------|-----------------|---------------5-|-----------------|

G|-----------------|-----------------|-----------------|-----------------|
D|-----------------|-----------------|-----------------|-----------------|
A|-3-3-3-5-5-5-5-5-|-5-5-5-5-7-7-5-\-|-3-----3-------3-|-5--5--5--5------|
E|-----------------|-----------------|---3-5-----3-5---|-------------12\-|


[Chorus] 1:33

G|-----------------|-----------------|-----------------|-----------------|
D|-----------------|-------------2-4-|-5---------------|-----------------|
A|-------3---2-3-4-|-5-5-5-5-5-5-----|---5-2-3---2-3-4-|-5-5-5-5-5-------|
E|-0-2-3-----------|-----------------|-----------------|-----------003-2-|

G|-----------------|-----------------|-----------------|-----------------|
D|-----------------|-------------2-4-|-5---------------|-----------------|
A|-------3---2-3-4-|-5-5-5-5-5-5-----|---5-2-3---2-3-4-|-5-5-5-5-5-5-5---|
E|-0-2-3-----------|-----------------|-----------------|-----------------|


[Interlude]

G|-------------------|
D|o-----------------o|
A|o---7---5-------5-o|
E|--0---7---0-0-7----|


[Verse] 1:52
                    x7
G|-------------------|-----------------|
D|o-----------------o|---------5-4-2-0-|
A|o---7---5-------5-o|---7---5---------|
E|--0---7---0-0-7----|-0---7-----------|

2:08                x7
G|-------------------|-----------------|
D|o-----------------o|-----------------|
A|o---7---5-------5-o|---7---5-----0-2-|
E|--0---7---0-0-7----|-0---7---0-3-----|


[Pre Chorus] 2:24

G|-----------------|-----------------|-----------------|-----------------|
D|-----------------|-----------------|-----------------|-----------------|
A|-3-3-3-5-5-5-5-5-|-5-5-5-5-7-7-7-7-|-3-3-3-5-5-5-5---|-5-7-9---7-7-7-\-|
E|-----------------|-----------------|---------------5-|-----------------|

G|-----------------|-----------------|-----------------|-----------------|
D|-----------------|-----------------|-----------------|-----------------|
A|-3-3-3-5-5-5-5-5-|-5-5-5-5-7-7-5-\-|-3-----3-------3-|-5--5--5--5------|
E|-----------------|-----------------|---3-5-----3-5---|-------------12\-|


[Chorus] 2:39

G|-----------------|-----------------|-----------------|-----------------|
D|-----------------|-------------2-4-|-5---------------|-----------------|
A|-------3---2-3-4-|-5-5-5-5-5-5-----|---5-2-3---2-3-4-|-5-5-5-5-5-------|
E|-0-2-3-----------|-----------------|-----------------|-----------003-2-|

G|-----------------|-----------------|-----------------|-----------------|
D|-----------------|-------------2-4-|-5---------------|-----------------|
A|-------3---2-3-4-|-5-5-5-5-5-5-----|---5-2-3---2-3-4-|-5-5-5-5-5-5-0-2-|
E|-0-2-3-----------|-----------------|-----------------|-----------------|

G|-----------------------------------|
D|-------5------/10------------------|
A|-3---------------------------------|
E|-----------------------------12\---|


[Solo] 2:58

G|-----------------|-----------------|-----------------|-------------------|
D|-----------------|---------2-2-4-4-|-5-------------2-|-------------------|
A|-------3---2-3-4-|-5-5-5-5---------|---5-2-3---2-3---|-5-5-5-5-5---------|
E|-0-2-3-----------|-----------------|-----------------|-----------0-0-3-2-|

G|-----------------|-----------------|-----------------|-----------------|-----------------|
D|-----------------|-------------2-4-|-5---------------|-----------------|-----------------|
A|-------3---2-3-4-|-5-5-5-5-5-5-----|---5-2-3---/-----|-----------------|-------------0-2-|
E|-0-2-3-----------|-----------------|-----------------|-0-0-0-0-0-0-0-0-|-0-0-0-0-0-0-----|


[Pre Chorus]

G|-----------------|-----------------|-----------------|-----------------|
D|-----------------|-----------------|-----------------|-----------------|
A|-3-3-3-5-5-5-5-5-|-5-5-5-5-7-7-5-\-|-3-----3---------|-5--5--5--5-\----|
E|-----------------|-----------------|-----------------|-----------------|


[Chorus] 3:23
(third time start fading out)
G|------------------|-----------------|-----------------|-------------------|
D|o-----------------|-------------5-7-|-8---------------|-------------------|
A|o-------6---5-6-7-|-8-8-8-8-8-8-----|---8-5-6---5-6-7-|-8-8-8-8-8---------|
E|--3-5-6-----------|-----------------|-----------------|-----------5-5-6-5-|

G|-----------------|-----------------|-----------------|----------------------|
D|-----------------|-------5-5-5-7-7-|-8---------------|---------------------o| x3
A|-------6---5-6-10|-8-8-8-----------|---8-5-6---5-6-7-|--8----8----8----8---o|
E|-3-5-6-----------|-----------------|-----------------|---8-8--8-8--8-8--5-5-|



*****************************************************


    play 16 times                [1st verse]
G||----------------------------||--------------------------|-------------|
D||o--------------------------o||o-------------------------|-------------|
A||o-----7-----5------------5-o||o----7-----5-----------5--|----7-----5--|
E||---0-----7-----0--0--7------||--0-----7-----0--0--7-----|-0-----7-----|

G|--------------|-------------------------|------------------------------|
D|--------------|-------------------------|------------------------------|
A|-----------5--|----7-----5-----------5--|----7-----5-----------5-------|
E|--0--0--7-----|-0-----7-----0--0--7-----|-0-----7-----0--0--7----------|

G|------------------------|------------------------|------------------------|
D|------------------------|------------------------|------------------------|
A|----7-----5-----------5-|----7-----5-----------5-|----7-----5-----------5-|
E|-0-----7-----0--0--7----|-0-----7-----0--0--7----|-0-----7-----0--0--7----|

 1.                            2.
G|--------------------------||---------------------------|
D|--------------5--4--5--4-o||-----------------4--5------|
A|-----7-----5-------------o||-----7-----5--7--------2---|
E|--0-----7-----------------||--0-----7------------------|


[1st Pre-Chorus]

G|------------------------|----------------------|-----------------------|
D|------------------------|----------------------|-----------------------|
A|-3--3--3--5--5--5--5--5-|-5--5--5--5--7--7--7\-|-3--3--3--5--5--5--5---|
E|------------------------|----------------------|---------------------5-|

G|------------------|------------------------|--------------------------|
D|------------------|------------------------|--------------------------|
A|-5--7/9--7--7--7\-|-3--3--3--5--5--5--5--5-|-5--5--5--5--7--7--5\-----|
E|------------------|------------------------|--------------------------|

G|------------------------|----------------------|
D|------------------------|----------------------|
A|-3--------3-----------3-|--5--5----5--5--------|
E|----3--5--------3--5----|-----------------12\--|


[1st chorus]

G|-----------------------|------------------------|----------------------|
D|-----------------------|-------------------2--4-|-5--------------------|
A|----------3----2--3--4-|-5--5--5--5--5--5-------|----5--2--3----2--3-4-|
E|-0--2--3---------------|------------------------|----------------------|

G|----------------------------|--------------------------|---------------|
D|----------------------------|--------------------2--4--|-5-------------|
A|-5--5--5--5--5--------------|--5--5--5--5--5--5--------|----5--2--3--2-|
E|-----------------x--0--3--2-|--------------------------|---------------|

G|------|----------------------||---------------------------||
D|------|----------------------||o-------------------------o||
A|-3--4-|-5--5--5--5--5--5--5--||o-----7-----5-----------5-o||
E|------|----------------------||---0-----7-----0--0--7-----||


[2nd Verse]

G||---------------------------|------------------------|
D||o--------------------------|------------------------|
A||o------7-----5-----------5-|----7-----5-----------5-|
E||----0-----7-----0--0--7----|-0-----7-----0--0--7----|

G|-------------------------|------------------------|-----------------------|
D|-------------------------|------------------------|-----------------------|
A|----7-----5-----------5--|----7-----5-----------5-|----7-----5-----------5|
E|-0-----7-----0--0--7-----|-0-----7-----0--0--7----|-0-----7-----0--0--7---|

                            1.
G|------------------------|--------------------------||
D|------------------------|-------------------------o||
A|----7-----5-----------5-|-----7-----5/10--9--7--5-o||
E|-0-----7-----0--0--7----|--0-----7-----------------||

 2.                         [2nd pre chorus]
G|-------------------------|------------------------|--------------------|
D|-------------------------|------------------------|--------------------|
A|----7-----5--------0--2--|-3--3--3--5--5--5--5--5-|-5--5--5--5--7--7---|
E|-0-----7-----0--3--------|------------------------|--------------------|

G|--------|------------------------|---------------------|----------------|
D|--------|------------------------|---------------------|----------------|
A|--7--7\-|-3--3--3--5--5--5--5----|-5--7/9--7--7--7--7\-|-3--3--3--5--5--|
E|--------|----------------------5-|---------------------|----------------|

G|----------|----------------------|-----------------------|--------------|
D|----------|----------------------|-----------------------|--------------|
A|--5--5--5-|-5--5--5--5--7--7--5\-|-3--------3----------3-|-5--5----5--5-|
E|----------|----------------------|----3--5-------3--5----|--------------|

          [2nd chorus]
G|-------|-----------------------|------------------------|---------------|
D|-------|-----------------------|-------------------2--4-|-5-------------|
A|-------|----------3----2--3--4-|-5--5--5--5--5--5-------|----5--2--3----|
E|--12\--|-0--2--3---------------|------------------------|---------------|

G|-----------|---------------------------|-------------------------------|
D|-----------|---------------------------|-------------------------------|
A|--2--3--4--|-5--5--5--5--5-------------|----------3----2--3/7----------|
E|-----------|----------------x--0--3--2-|-0--2--3-----------------------|


G|-------------------------|------------------------|--------------------|
D|--------------------2--4-|-5----------------------|--------------------|
A|--5--5--5--5--5--5-------|----5--2--3----2--3--4--|-5--5--5--5--5--5---|
E|-------------------------|------------------------|--------------------|

G|--------|-------------------------|------------------------------------|
D|--------|----------5--------9/10--|------------------------------------|
A|--0--2--|--3----------------------|------------------------------------|
E|--------|-------------------------|-------------12\--------------------|

[Guitar solo]
G|------------------------|------------------------|---------------------|
D|------------------------|-------------2--2--4--4-|-5------------------2|
A|-----------3----3--3--4-|-5--5--5--5-------------|----5--2--3----2--3--|
E|--0--2--3---------------|------------------------|---------------------|

G|---------------------------|-----------------------|-------------------|
D|---------------------------|-----------------------|-------------------|
A|-5--5--5--5--5-------------|----------3----2--3--4-|-5--5--5--5--5--5--|
E|----------------x--0--3--2-|-0--2--3---------------|-------------------|

G|-------|-----------------|-------------------------|---------------------|
D|--2--4-|--5--------------|-------------------------|---------------------|
A|-------|-----5--2--3--/--|-------------------------|-------------------0-|
E|-------|-----------------|-0--0--0--0--0--0--0--0--|-0--0--0--0--0--0----|

      [3rd pre chorus]
G|----|------------------------|---------------------|-------------------|
D|----|------------------------|---------------------|-------------------|
A|--2-|-3--3--3--5--5--5--5--5-|-5--5--5--5--7--7--5-|-3--3-3--3---------|
E|----|------------------------|---------------------|-------------------|

G|-----------------|
D|-----------------|
A|---5--5----5--5\-|
E|-----------------|


 [3rd chorus]

G||-------------------------|------------------------|--------------------|
D||o------------------------|-------------------5--7-|-8------------------|
A||o-----------6----5--6--7-|-8--8--8--8--8--8-------|----8--5--6----5--6-|
E||---3--5--6---------------|------------------------|--------------------|

G|----|---------------------------|-----------------------|---------------|
D|----|---------------------------|-----------------------|----------5--5-|
A|--7-|-8--8--8--8--8-------------|----------6----5--6/10-|-8--8--8-------|
E|----|----------------x--5--6--5-|-3--5--6---------------|---------------|

                                     play 3times then fade
G|---------|-----------------------|------------------------------------||
D|-5--7--7-|-8---------------------|-----------------------------------o||
A|---------|----8--5--6----5--6--7-|-8--------8--------8--------8------o||
E|---------|-----------------------|----8--8-----8--8-----8--8-----x-5--||


*****************************************************

h = hammer on                   
p = pulloff                     
/\ = slide                      
x = ghost note                  
t = tap (right hand)            
~ = vibrato                     * = picked harmonic
bf = bend full                  tr = trill
rb = release bend               p.s. = pick scrape
dive = dive with bar            b = bend / step written over note

*****************************************************
comments
print report bad tab
16 comments total. Showing first comments. show 1 bad comment
+1 reply
saturns_bassman wrote on March 25 2005, 12:00 am

nice freakin tab buddy!!!!!!

0 reply
GoDiSiNsAnE wrote on December 29 2007, 04:32 pm

Nice tab homie! thx it has helped me a lot

I want to post or [tab]
guest
You may want to rate the tab now too:
select rating
Please do not post tabs as comments. Select "correction" instead!