Oops, an error
Loading. Please wait.
We have an official Livin On A Prayer tab made by UG professional guitarists. Check out the tab »
×
16,665 views 36 this week
no commentswrite comment
1 2 3 4 5
x 5
add to favorites
×
Save as Personal and add changes to this tab that will be seen only by you. Learn more ›
×
You can save this tab as Personal to edit and correct it or add notes. All changes will be seen only by you. Learn more »
launch autoscroll
font size
0
reset
guitar tuner
edit
Autoscroll
slow
fast
+/-
esc
set tempo
stop
Difficulty
                                 Bon Jovi:
	                     Livin' On A Prayer
	                  From: Slippery when wet
	                         Bass Tab


	   Verso 1 (After 16TH Bar)

	G||-----------------------|
	D||-----------------------|   
	A||----7-----5-----------5|  x23
	E||-0-----7-----0--0--7---|



        G||-----------------------|
	D||-------------5--4--5--4|
	A||----7-----5------------|
	E||-0-----7---------------|



	G||-----------------------|
	D||-----------------------|   
	A||----7-----5-----------5|  x7
	E||-0-----7-----0---0--7--|



        G||-----------------------|
	D||-------------5--4--5--4|
	A||----7-----5------------|
	E||-0-----7---------------|


	Pre-Coro

	G||-----------------------|-----------------------|
	D||-----------------------|-----------------------|
	A||-3--3--3--5--5--5--5--5|--5--5--5--5--7--7---7\|
	E||-----------------------|-----------------------|




	G||-----------------------|--------------------------|
	D||-----------------------|--------5--4--------------|
	A||-3--3--3--5--5--5--5---|--5--7--------7--7--7---7\|
	E||----------------------7|--------------------------|




	G||-----------------------|----------------------|
	D||-----------------------|----------------------|
	A||-3--3--3--5--5--5--5--5|--5--5--5--5--7--7---5|
	E||-----------------------|----------------------|




	     			   --------
	    			  |    3   |
	G||---------------------|--------------------|
	D||---------------------|--------------------|
	A||-3--------3---------3|--5---5---5---5---X\|
	E||----3--5------3--5---|--------------------|


	 Coro
	
	
	G||---------------------|------------------------|
	D||---------------------|--------------------2--4|
	A||----------3---2--3--3|--5--5--5--5--5--5------|
	E||-0--2--3-------------|------------------------|




	G||---------------------|-------------------------|
	D||-5--0----------------|-------------------------|
	A||-------2--3---2--3--3|--5--5--5--5--5--5-5-----|
	E||---------------------|---------------------2--2|




	G||---------------------|------------------------|
	D||---------------------|--------------------2--4|
	A||----------3---2--3--3|--5--5--5--5--5--5------|
	E||-0--2--3-------------|------------------------|




	G||---------------------|------------------------|
	D||-5--0----------------|------------------------|
	A||-------2--3---2--3--3|--5--5--5--5--5--5--5---|
	E||---------------------|------------------------|


          Verso 2
	
	G||-----------------------|
	D||-----------------------|   
	A||----7-----5-----------5|  x9
	E||-0-----7-----0--0--7---|




        G||-----------------------|
	D||-------------5--4--5--4|
	A||----7-----5------------|
	E||-0-----7---------------|




	G||-----------------------|
	D||-----------------------|   
	A||----7-----5-----------5|  x7
	E||-0-----7-----0--0--7---|




	G||-----------------------|------------------------|
	D||-----------------------|------------------------|
	A||----7-----------------2|--3--3--3--5--5--5--5--5|
	E||-0-----7-----0--2--3---|------------------------|




	G||----------------------|------------------------|
	D||----------------------|------------------------|
	A||-5--5--5--5--7--7---7\|--3--3--3--5--5--5--5---|
	E||----------------------|-----------------------7|



	G||-------------------------|
	D||-------5--4--------------|
	A||-5--7--------7--7--7---7\|
	E||-------------------------|


	   Pre-Coro

	G||-----------------------|----------------------|
	D||-----------------------|----------------------|
	A||-3--3--3--5--5--5--5--5|--5--5--5--5--7--7---5|
	E||-----------------------|----------------------|



				   --------
				  |    3   |
	G||---------------------|--------------------|
	D||---------------------|--------------------|
	A||-3--------3---------3|--5---5---5---5---X\|
	E||----3--5------3--5---|--------------------|


	   Coro

	G||---------------------|------------------------|
	D||---------------------|--------------------2--4|
	A||----------3---2--3--3|--5--5--5--5--5--5------|
	E||-0--2--3-------------|------------------------|
	


	G||---------------------|-------------------------|
	D||-5--0----------------|-------------------------|
	A||-------2--3---2--3--3|--5--5--5--5--5--5-5-----|
	E||---------------------|---------------------2--2|



	G||---------------------|------------------------|
	D||---------------------|--------------------2--4|
	A||----------3---2--3--3|--5--5--5--5--5--5------|
	E||-0--2--3-------------|------------------------|


	
	G||---------------------|---------------------|
	D||-5--0----------------|---------------------|
	A||-------2--3---2--3--3|--5--5--5--5--5--0--2|
	E||---------------------|---------------------|



		 (Continues to the next bar)
	G||----------5|--------------------|
	D||-----5-----|--------------------|
	A||-3.--------|--------------------|
	E||-----------|--------------------|



	G||---------------------|------------------------|
	D||---------------------|--------------2--2--4--4|
	A||----------3---2--3--3|--5--5--5--5------------|	
	E||-0--2--3-------------|------------------------|



	G||---------------------|------------------------|
	D||-5--0---------------2|------------------------|
	A||-------2--3---2--3---|--5--5--5--5--5---------|
	E||---------------------|-----------------0--3--2|
	



	G||---------------------|------------------------|
	D||---------------------|--------------------2--4|
	A||----------3---2--3--3|--5--5--5--5--5--5------|
	E||-0--2--3-------------|------------------------|



	G||---------------------|
	D||-5--0----------------|
	A||-------2--3------(3)\|
	E||---------------------|



	G||-----------------------|------------------------|
	D||-----------------------|------------------------|
	A||-----------------------|--------------------0--2|
	E||-0--0--0--0--0--0--0--0|--0--0--0--0--0--0------|


	   Final

	G||-----------------------|------------------------|
	D||-----------------------|------------------------|
	A||-3--3--3--5--5--5--5--5|--5--5--5--5--7--7--5---|
	E||-----------------------|------------------------|



			    ---------
			   |    3    |
	G||-----B ------B |--------------------|
	D||-----R ------R |-5---5---5---5--(5)\|
	A||-3---E 3-----E |--------------------|
	E||-----A ------A |--------------------|
		K	K


	G||---------------------|--------------------0--2|
	D||----------1---0--1--2|--3--3--3--3--3--3------|
	A||----0--1-------------|------------------------|
	E||-3-------------------|------------------------|




	G||-3-------------------|-------------------------|
	D||----3--0--1---0--1--2|--3--3--3--3--3----------|
	A||---------------------|-----------------0-0-1--0|
	E||---------------------|-------------------------|


	
	G||---------------------|-----------0--0--0--2---|
	D||----------1---0--1--5|--3--3--3--------------3|
	A||----0--1-------------|------------------------|
	E||-3-------------------|------------------------|



	G||-3-------------------|-----------------------------|
	D||----3--0--1---0--1--1|--3--3---3--3---3--3---3-----|
	A||---------------------|-------3------3------3----1-0|
	E||---------------------|-----------------------------|



	G||---------------------|--------------------0--2|
	D||----------1---0--1--2|--3--3--3--3--3--3------|
	A||----0--1-------------|------------------------|
	E||-3-------------------|------------------------|



	G||-3-------------------|-------------------------|
	D||----3--0--1---0--1--2|--3--3--3--3--3----------|
	A||---------------------|-----------------0-0-1--0|
	E||---------------------|-------------------------|



	G||----------------------|----------0--0--0--2---|
	D||----------1---0--1--5-|-3--3--3--------------3|
	A||----0--1--------------|-----------------------|
	E||-3--------------------|-----------------------|




	G||-3-------------------|----------------------------|
	D||----3--0--1---0--1--1|--3--3---3--3---3--3---3----|
	A||---------------------|-------3------3------3---1-0|
	E||---------------------|----------------------------|



	G||----------------------|--------------------0--2|
	D||-----------1---0--1--2|--3--3--3--3--3--3------|
	A||----0--1--------------|------------------------|
	E||-3--------------------|------------------------|



	G||-3-------------------|-------------------------|
	D||----3--0--1---0--1--2|--3--3--3--3--3----------|
	A||---------------------|-----------------0-0-1--0|
	E||---------------------|-------------------------|



	G||---------------------|-----------0--0--0--2---|
	D||----------1---0--1--5|--3--3--3--------------3|
	A||----0--1-------------|------------------------|
	E||-3-------------------|------------------------|



	G||-3-------------------|-----------------------------|
	D||----3--0--1---0--1--1|--3--3---3--3---3--3---3-----|
	A||---------------------|-------3------3------3----1-0|
	E||---------------------|-----------------------------|

            
            
Suggest correction
Creating personal tab
Creating personal tab
You can edit any tab online and save it as your Personal.

You can edit, replace or remove any tab part or add personal notes – all changes will be seen only by you.

Personal tabs can be accessed anytime from any device, even offline.
Learn more »
comments
print report bad tab
guest
Wanna post a correction for this tab? Suggest correction