Oops, an error
Loading. Please wait.

Livin On A Prayer Tab

version 5
38,211 views 81 this week
1 commentread comment
1 2 3 4 5
accurate
x 12
add to favorites
launch autoscroll
font size
0
reset
how to read this tab
guitar tuner
Autoscroll
slow
fast
+/-
esc
set tempo
stop
Help us to improve Ultimate-Guitar.com Take our survey!
×
Contributor
Difficulty
jett18 198
intermediate
 LIVIN ON A PRAYER
                             As recorded by Bon Jovi
                        (From the 1994 Album CROSSROADS)

Words and Music by Jon Bon Jovi, Ricihe Sambora and Desmond Child
Transcribed by Jett18

          E5                   C5                   D5                   G5
      x 7 9 9 x x          x 3 5 5 x x          x 5 7 7 x x        x 10 12 12 x x

 Intro
  Moderate Rock Q=122
  N.C.
 4/4       3/4       4/4
  Gtr I
|---------|---------|---------|-----|
|---------|---------|---------|-----|
|---------|---------|---------|-----|
|---------|---------|---------|-----|
|---------|---------|---------|-----|
|---------|---------|---------|-----|


                      PM  PM  PM--|     PM  PM  PM--|
|---------|---------|-----------------|-----------------|
|---------|---------|-----------------|-----------------|
|---------|---------|-----------------|-----------------|
|---------|---------|-----------------|-----------------|
|---------|---------|---7---5-------5-|---7---5-------5-|
|---------|---------|-0---7---0-0-7---|-0---7---0-0-7---|


  PM  PM  PM--|     PM  PM  PM--|     PM  PM  PM--|     PM  PM  PM--|
|-----------------|-----------------|-----------------|-----------------|
|-----------------|-----------------|-----------------|-----------------|
|-----------------|-----------------|-----------------|-----------------|
|-----------------|-----------------|-----------------|-----------------|
|---7---5-------5-|---7---5-------5-|---7---5-------5-|---7---5-------5-|
|-0---7---0-0-7---|-0---7---0-0-7---|-0---7---0-0-7---|-0---7---0-0-7---|


  PM  PM  PM--|     PM  PM  PM--|     PM  PM  PM--|     PM  PM  PM--|
|-----------------|-----------------|-----------------|-----------------|
|-----------------|-----------------|-----------------|-----------------|
|-----------------|-----------------|-----------------|-----------------|
|-----------------|-----------------|-----------------|-----------------|
|---7---5-------5-|---7---5-------5-|---7---5-------5-|---7---5-------5-|
|-0---7---0-0-7---|-0---7---0-0-7---|-0---7---0-0-7---|-0---7---0-0-7---|


                                      Verse
  PM  PM  PM--|     PM  PM  PM--|
|-----------------|-----------------||---------|-----|
|-----------------|-----------------||---------|-----|
|-----------------|-----------------||---------|-----|
|-----------------|-----------------||---------|-----|
|---7---5-------5-|---7---5-------5-||---------|-----|
|-0---7---0-0-7---|-0---7---0-0-7---||---------|-----|


                      C5         D5
|---------|---------|----------|------|
|---------|---------|----------|------|
|---------|---------|----------|------|
|---------|---------|-5--------|-7----|
|---------|---------|-3--------|-5----|
|---------|---------|----------|------|


  N.C.
  PM  PM  PM--|     PM  PM  PM--|     PM  PM  PM--|     PM  PM  PM--|
|-----------------|-----------------|-----------------|-----------------|
|-----------------|-----------------|-----------------|-----------------|
|-----------------|-----------------|-----------------|-----------------|
|-----------------|-----------------|-----------------|-----------------|
|---7---5-------5-|---7---5-------5-|---7---5-------5-|---7---5-------5-|
|-0---7---0-0-7---|-0---7---0-0-7---|-0---7---0-0-7---|-0---7---0-0-7---|


                                      C5         D5
  PM  PM  PM--|     PM  PM  PM--|
|-----------------|-----------------|----------|------|
|-----------------|-----------------|----------|------|
|-----------------|-----------------|----------|------|
|-----------------|-----------------|-5--------|-7----|
|---7---5-------5-|---7---5-------5-|-3--------|-5----|
|-0---7---0-0-7---|-0---7---0-0-7---|----------|------|


                                      Pre-chorus
  N.C.                                 C5  D5                E5
  PM  PM  PM--|     PM  PM  PM--|
|-----------------|-----------------||---------------|-------------|
|-----------------|-----------------||---------------|-------------|
|-----------------|-----------------||---------------|-------------|
|-----------------|-----------------||-5---7-(7)---x-|-7--7--9---x-|
|---7---5-------5-|---7---5-------5-||-3---5-(5)---x-|-5--5--7---x-|
|-0---7---0-0-7---|-0---7---0-0-7---||---------------|-------------|


  C5  D5                E5      C5  D5                E5 D5
|---------------|-------------|---------------|-------------|
|---------------|-------------|---------------|-------------|
|---------------|-------------|---------------|-------------|
|-5---7-(7)---x-|-7--7--9---x-|-5---7-(7)---x-|-7--7--9--7--|
|-3---5-(5)---x-|-5--5--7---x-|-3---5-(5)---x-|-5--5--7--5--|
|---------------|-------------|---------------|-------------|


                             Chorus
  C5         D5               E5  C5          D5
                                                     PM|
|----------|---------------||---------------|-------------|
|----------|---------------||---------------|-------------|
|----------|---------------||---------------|-------------|
|-5--------|-7-7-7-7-------||-2---5-(5)---5s|=7--------4--|
|-3--------|-5-5-5-5-------||-2---3-(3)---3s|=5------7----|
|----------|----------10\--||-0-------------|-------------|


  G5  C5            D5             E5  C5          D5
              PM|                              PM         PM|
|-----------------|--------------|---------------|-------------|
|-----------------|--------------|---------------|-------------|
|-----------------|--------------|---------------|-------------|
|-----5-(5)-------|-7------(7)---|-2---5-(5)-----|-7--------4--|
|-5---3-(3)---3-0-|-5------(5)-0-|-2---3-(3)---3-|-5------7----|
|-3---------------|--------------|-0-------------|-------------|


  G5  C5            D5         N.C.
              PM|              PM  PM  PM--|     PM  PM  PM--|
|-----------------|----------|-----------------|------------------||
|-----------------|----------|-----------------|------------------||
|-----------------|----------|-----------------|------------------||
|-----5-(5)-------|-7--------|-----------------|------------------||
|-5---3-(3)---3-3-|-5--------|---7---5-------5-|---7---5-------5--||
|-3---------------|----------|-0---7---0-0-7---|-0---7---0-0-7----||


 Verse
  PM  PM  PM--|     PM  PM  PM--|     PM  PM  PM--|     PM  PM  PM--|
|-----------------|-----------------|-----------------|-----------------|
|-----------------|-----------------|-----------------|-----------------|
|-----------------|-----------------|-----------------|-----------------|
|-----------------|-----------------|-----------------|-----------------|
|---7---5-------5-|---7---5-------5-|---7---5-------5-|---7---5-------5-|
|-0---7---0-0-7---|-0---7---0-0-7---|-0---7---0-0-7---|-0---7---0-0-7---|


                               ~~~~
|--------------------------|------------------|
|--------------------------|------------------|
|----14b16==(14)-(14)---14r|=(14)------(14)\--|
|--------------------------|------------------|
|--------------------------|------------------|
|--------------------------|------------------|


                                       \2.5
             ~~~~~~~~~~
|---20b22==(20)--(20)r----|-15---------------------|
|-------------------------|----17-(17)-------------|
|-------------------------|------------0----(0)----|
|-------------------------|------------------------|
|-------------------------|------------------------|
|-------------------------|------------------------|


  Gtr II
   PM   PM  PM--|     PM  PM  PM--|     PM  PM  PM--|     PM  PM  PM--|
|-------------------|-----------------|-----------------|-----------------|
|-------------------|-----------------|-----------------|-----------------|
|-------------------|-----------------|-----------------|-----------------|
|-------------------|-----------------|-----------------|-----------------|
|-----7---5-------5-|---7---5-------5-|---7---5-------5-|---7---5-------5-|
|--0----7---0-0-7---|-0---7---0-0-7---|-0---7---0-0-7---|-0---7---0-0-7---|
|
| Gtr I
|-------------------|-----------------|-----------------|-----------------|
|-------------------|-----------------|-----------------|-----------------|
|-(0)---------------|-----------------|-----------------|-----------------|
|-------------------|-----------------|-----------------|-----------------|
|-------------------|-----------------|-----------------|-----------------|
|-------------------|-----------------|-----------------|-----------------|


  PM  PM  PM--|     PM  PM  PM--|     PM  PM  PM--|     PM  PM  PM--|
|-----------------|-----------------|-----------------|-----------------||
|-----------------|-----------------|-----------------|-----------------||
|-----------------|-----------------|-----------------|-----------------||
|-----------------|-----------------|-----------------|-----------------||
|---7---5-------5-|---7---5-------5-|---7---5-------5-|---7---5-------5-||
|-0---7---0-0-7---|-0---7---0-0-7---|-0---7---0-0-7---|-0---7---0-0-7---||


 Pre-chorus
  C5  D5                E5      C5  D5                E5
|---------------|-------------|---------------|---------------|
|---------------|-------------|---------------|---------------|
|---------------|-------------|---------------|---------------|
|-5---7-(7)---x-|-7--7--9---x-|-5---7-(7)---x-|-7--7--9---x---|
|-3---5-(5)---x-|-5--5--7---x-|-3---5-(5)---x-|-5--5--7---x---|
|---------------|-------------|---------------|---------------|


  C5  D5                E5      C5         D5
|---------------|-------------|----------|----------------||
|---------------|-------------|----------|----------------||
|---------------|-------------|----------|----------------||
|-5---7-(7)---x-|-7--7--9--7--|-5--------|-7-7-7-7--------||
|-3---5-(5)---x-|-5--5--7--5--|-3--------|-5-5-5-5--------||
|---------------|-------------|----------|----------10\---||


 Chorus
  E5  C5          D5           G5  C5            D5
                         PM|               PM|
|---------------|------------|-----------------|---------------|
|---------------|------------|-----------------|---------------|
|---------------|------------|-----------------|---------------|
|-2---5-(5)---5s|=7--------4-|-----5-(5)-------|-7------(7)----|
|-2---3-(3)---3s|=5------7---|-5---3-(3)---3-0-|-5------(5)-0--|
|-0-------------|------------|-3---------------|---------------|


  E5  C5          D5           G5  C5            D5
              PM         PM|               PM|
|---------------|------------|-----------------|------||
|---------------|------------|-----------------|------||
|---------------|------------|-----------------|------||
|-2---5-(5)-----|-7--------4-|-----5-(5)-------|-7----||
|-2---3-(3)---3-|-5------7---|-5---3-(3)---3-3-|-5----||
|-0-------------|------------|-3---------------|------||


  CsusD       G
                                       Gt
                              ~~~
|-3----------------|-------------------||
|-3----------------|-------------------||
|-5---/7-(7)--/12--|-(12)----[9]-------||
|-5----------------|-------------------||
|-3---/5-(5)--/10--|-(10)--------------||
|------------------|---------------12\-||


 Guitar Solo
  E5    C5                  D5
  Gtr II
  |     ||                    |
  /     //                    /

 r I
      ~                             ~~~~~~~
|-------------------------|---------------------12-14-|
|-------------------------|-------------------x-------|
|-------------------------|-----------------x---------|
|--------5-7-[7]b9==([7])r|=([7])---------------------|
|-7-5-7-------------------|-------5-5--(5)------------|
|-------------------------|---------------------------|


  G5       C5
   |        |   |
   /        /   /

|-15-----------------------------------------|
|----15-12-13-(13)-15-15b17-(15)-15b17==(15)-|
|--------------------------------------------|
|--------------------------------------------|
|--------------------------------------------|
|--------------------------------------------|


  D5                       E5     C5
    |                      |       | |
    /                      /       / /

             ~~~~~~~~~
|------------------------|-------------------------------|
|-(15)r(15)-15--(15)\----|---12---13---12----------------|
|------------------------|-9-12-x-14-x-12-x-11b12==(11)r=|
|------------------------|------x----x-12-x--------------|
|------------------------|-------------------------------|
|------------------------|-------------------------------|


  D5                            G5       C5
    |                            |        |   |
    /                            /        /   /

           ~~~~~~~~
|-----------------------12-14-|-15----------------------|
|---------------------x-------|----15-12-13-(13)-12-----|
|-(11)--------------x---------|---------------------12--|
|------12---------------------|-------------------------|
|---------12--(12)------------|-------------------------|
|-----------------------------|-------------------------|


        E5
          |  |         |  |  |  ||  |     |     |     |     |             |  |||
          /  /         /  /  /  //  /     /     /     /     /             /  ///

                                                                          ~~~~
|--------------------------------------|-------------15----15-17-17b19==(17)----||
|-15b17-(15)--15b17==(15)--(15)r==(15)-|-------15h17----17----------------------||
|--------------------------------------|-14h16----------------------------------||
|--------------------------------------|----------------------------------------||
|--------------------------------------|----------------------------------------||
|--------------------------------------|----------------------------------------||


  C5      D5           D5    E5 D5   C5         D5
                                               3/4
  Gtr II
                 PM|
|--------------------|-------------|----------|------------||
|--------------------|-------------|----------|------------||
|--------------------|-------------|----------|------------||
|---5-----7-(7)------|-7--7--9--7--|-5--------|-7-7-7-7----||
|---3-----5-(5)--5-5-|-5--5--7--5--|-3--------|-5-5-5-5----||
|--------------------|-------------|----------|------------||
|
| Gtr I
|   ~~~~~
|-(17)r--------------|-------------|----------|------------||
|--------------------|-------------|----------|------------||
|--------------------|-------------|----------|------------||
|--------------------|-------------|----------|------------||
|--------------------|-------------|----------|------------||
|--------------------|-------------|----------|------------||


   Outro-Chorus
    G5  Eb5         F5         Bb5 Eb5        F5
   4/4
||----------------|----------|--------------|------|
||o---------------|----------|--------------|------|
||----------------|----------|--------------|------|
||------8-(8)-----|-3--------|-----8-(8)----|-3----|
||o-5---6-(6)---6-|-3--------|-8---6-(6)----|-3----|
||--3-------------|-1--------|-6------------|-1----|


  G5  Eb5         F5         Bb5 Eb5          F5
                                                    3x
|---------------|----------|----------------|-------||
|---------------|----------|----------------|------o||
|---------------|----------|----------------|-------||
|-----8-(8)-----|-3--------|-----8-(8)------|-3-----||
|-5---6-(6)---6-|-3--------|-8---6-(6)--6-6-|-3----o||
|-3-------------|-1--------|-6--------------|-1-----|
Suggest correction What's this?
You can suggest a correction to this tab. Community and Mods will review your correction and vote to approve or reject it.
comments
print report bad tab
1 comment total.
0 reply
austimusprime 73 wrote on April 18 2010, 03:12 am

heaps good man, and i know most of it is right coz my friend has the sheet music and its pretty much the same.

4 and a half stars but for this i just gave you 5.

I want to post or [tab]
guest
You may want to rate the tab now too:
select rating
Please do not post tabs as comments. Select "correction" instead!