Oops, an error
Loading. Please wait.

Livin On A Prayer Tab

version 6
3,005 views 12 this week
1 commentread comment
1 2 3 4 5
worth learning
x 3
add to favorites
launch autoscroll
font size
0
reset
how to read this tab
guitar tuner
Tab Pro tools
  • play this tab
  • loop segment
  • change instrument
  • show fretboard
  • metronome
×
Best way to learn
"Livin On A Prayer"
Autoscroll
slow
fast
+/-
esc
set tempo
stop
Contributor
Difficulty
novice
This is my first tab, and hopefully not as bad as i think.    
Good luck!


~ = vibrato
^ = bend
^^= bend + keep bended longer

             
                    Bon Jovi-Livin' on a prayer
              -------------------------------------

FIRST VERSE:

|---------------------------------------------------------------------|
|---------------------------------------------------------------------|
|---------------------------------------------------------------------|
|----------------------------5------7-----9---------------------------|
|----------------------------3------5-----7---------------------------|
|---------------------------------------------------------------------|

  He's down on his luck it's tough...  So tough  
 
                 her pay for love...  For love


_______________________________________________________________________
_______________________________________________________________________

SECOND VERSE:

|---------------------------------------------------------------------|
|---------------------------------------------------------------------|
|---------------------------------------------------------------------|
|-----------------------7----5-----5----5--7--------------------------|
|-----------------------5----3-----3----3--5--------------------------|
|---------------------------------------------------------------------|

  She says we've got to hold on to what we got

|---------------------------------------------------------------------|
|---------------------------------------------------------------------|
|---------------------------------------------------------------------|
|----7--------------5----------------5----------7---------------------|
|----5--------------3----------------3----------5---------------------|
|---------------------------------------------------------------------|

  It doesn't make a difference if we make it or not

|---------------------------------------------------------------------|
|---------------------------------------------------------------------|
|---------------------------------------------------------------------|
|------7--------5------------------9-------5------------7----7--7-7---|
|------5--------3------------------7-------3------------5----5--5-5---|
|---------------------------------------------------------------------|

 We've got each other and that's a lot for love - we'll give it a shot!
 


______________________________________________________________________
______________________________________________________________________ 

 CHORUS:  
  
|---------------------------------------------------------------------|
|---------------------------------------------------------------------|
|---------------------------------------------------------------------|
|-7-------------5----------------7--------5---------------------------|
|-5-------------3----------------5--------3---------------------------|
|---------------------------------------------------------------------|

  Whooah, we're half way there,  whoo-ah! Livin'n on a prayer

|---------------------------------------------------------------------|
|---------------------------------------------------------------------|
|---------------------------------------------------------------------|
|-7-------5--------------7--------------------------------------------|
|-5-------3--------------5--------------------------------------------|
|---------------------------------------------------------------------|

  Take my hand and we'll make it - I swear

|---------------------------------------------------------------------|
|---------------------------------------------------------------------|
|---------------------------------------------------------------------|
|-7--------5----------------------------------------------------------|
|-5--------3----------------------------------------------------------|
|---------------------------------------------------------------------|

  Whoo-ah, livin' on a prayer


_______________________________________________________________________
_______________________________________________________________________

THIRD VERSE:

|-----------------------------------------17^^^-15\12~~ --------------|
|-----------------------------10^^^10~~ ------------------------------|
|---------------------------------------------------------------------|
|---------------------------------------------------------------------|
|---------------------------------------------------------------------|
|---------------------------------------------------------------------|

  To make it talk - so tough,      it's tough


_______________________________________________________________________
_______________________________________________________________________

FOURTH VERSE:

|---------------------------------------------------------------------|
|---------------------------------------------------------------------|
|---------------------------------------------------------------------|
|-----------------------7----5-----5----5--7--------------------------|
|-----------------------5----3-----3----3--5--------------------------|
|---------------------------------------------------------------------|

           we've got to hold on to what we got

|---------------------------------------------------------------------|
|---------------------------------------------------------------------|
|---------------------------------------------------------------------|
|----7--------------5----------------5----------7---------------------|
|----5--------------3----------------3----------5---------------------|
|---------------------------------------------------------------------|

  It doesn't make a difference if we make it or not

|---------------------------------------------------------------------|
|---------------------------------------------------------------------|
|---------------------------------------------------------------------|
|------7--------5------------------9---7---5------------7----7--7-7---|
|------5--------3------------------7---5---3------------5----5--5-5---|
|---------------------------------------------------------------------|

 We've got each other and that's a lot for love - we'll give it a shot!
  

_______________________________________________________________________
_______________________________________________________________________

CHORUS:

|---------------------------------------------------------------------|
|---------------------------------------------------------------------|
|---------------------------------------------------------------------|
|-7-------------5----------------7--------5---------------------------|
|-5-------------3----------------5--------3---------------------------|
|---------------------------------------------------------------------|

  Whooah, we're half way there,  whoo-ah! Livin'n on a prayer

|---------------------------------------------------------------------|
|---------------------------------------------------------------------|
|---------------------------------------------------------------------|
|-7-------5--------------7--------------------------------------------|
|-5-------3--------------5--------------------------------------------|
|---------------------------------------------------------------------|

  Take my hand and we'll make it - I swear

|---------------------------------------------------------------------|
|---------------------------------------------------------------------|
|---------------------------------------------------------------------|
|-7--------5---------------------7-----7----7-------------------------|
|-5--------3---------------------5-----5----5-------------------------|
|---------------------------------------------------------------------|

  Whoo-ah, livin' on a prayer  (livin' on a praayyeerrr)

_______________________________________________________________________
_______________________________________________________________________


SOLO:     yeah, I know that the last part of the solo is terribly wrong.


|------------------------------------13-15-16-------------------------|
|-----------9-11-11^11^11^11------------------16-13-14--16-17^17^^-16-|
|---10-8-10------------------10-10~ ----------------------------------|
|---------------------------------------------------------------------|
|---------------------------------------------------------------------|
|---------------------------------------------------------------------|


|-----------------------------------------------------0-3-5-7-8/10-13-|
|--------11-9-8^-----------------------------------1-3-----4----------|
|--13\10--------8----10-12-13---------------------0-------------------|
|-----------------10----------13-10-11--10-------2--------------------|
|------------------------------------------11~ -----------------------|
|---------------------------------------------------------------------|


|-15-17-20~~~~ -------------------------------------------------------|
|---------------------------------------------------------------------|
|---------------------------------------------------------------------|
|---------------------------------------------------------------------|
|---------------------------------------------------------------------|
|---------------------------------------------------------------------|


_______________________________________________________________________
_______________________________________________________________________

FIFTH VERSE:
|---------------------------------------------------------------------|
|---------------------------------------------------------------------|
|---------------------------------------------------------------------|
|------------7----5-----------7---------------------------------------|
|------------5----3-----------5---------------------------------------|
|---------------------------------------------------------------------|

we've got to hold on ready or not

|---------------------------------------------------------------------|
|---------------------------------------------------------------------|
|---------------------------------------------------------------------|
|---7----------------------------9---9----9------9--------------------|
|---5----------------------------7---7----7------7--------------------|
|---------------------------------------------------------------------|

you live for the fight when it's all that you've got

_______________________________________________________________________
_______________________________________________________________________


CHORUS:   

|---------------------------------------------------------------------|
|---------------------------------------------------------------------|
|---------------------------------------------------------------------|
|-7-------------5----------------7--------5---------------------------|
|-5-------------3----------------5--------3---------------------------|
|---------------------------------------------------------------------|

  Whooah, we're half way there,  whoo-ah! Livin'n on a prayer

|---------------------------------------------------------------------|
|---------------------------------------------------------------------|
|---------------------------------------------------------------------|
|-7-------5--------------7--------------------------------------------|
|-5-------3--------------5--------------------------------------------|
|---------------------------------------------------------------------|

  Take my hand and we'll make it - I swear

|---------------------------------------------------------------------|
|---------------------------------------------------------------------|
|---------------------------------------------------------------------|
|-7--------5---------------------7-----7----7-------------------------|
|-5--------3---------------------5-----5----5-------------------------|
|---------------------------------------------------------------------|

  Whoo-ah, livin' on a prayer



                       (Repeat chorus three times)
comments
We did not receive enough feedback on this tab! Please rate:
print report bad tab
1 2 3 4 5
1 comment total.
0 reply
Rajah wrote on July 9 2014, 02:29 am

Lack of accuracy. Clearly wrong.

I want to post or [tab]
guest
You may want to rate the tab now too:
select rating
Please do not post tabs as comments. Select "correction" instead!