Oops, an error
Loading. Please wait.

Misunderstood Tab

version 2
version 2

Whole song

Interactive

4,828 views 1 this week
no commentswrite comment
1 2 3 4 5
accurate
x 5
add to favorites
launch autoscroll
font size
0
reset
how to read this tab
guitar tuner
Autoscroll
slow
fast
+/-
esc
set tempo
stop
Help us to improve Ultimate-Guitar.com Take our survey!
×
Misunderstood - bon jov
Verse 1
Should I, Could I
Have said the wrong things rights a thousand times
If i could just rewind, i see it in my mind
If i could turn back time, you'd still be mine

e||------3-3-3-3--|------3-3-3-3--|------3-3-3-3--|------3-3-3-3--||
B||------3-3-3-3--|------3-3-3-3--|------3-3-3-3--|------3-3-3-3--||
G||------0-0-0-0--|------0-0-0-0--|------0-0-0-0--|------0-0-0-0--||
D||---------------|---------------|---------------|---------------||
A||---------------|---------------|---------------|--3-2----------||
E||--1/3----------|--3-2----------|--2-0----------|---------------||

e||------3-3-3-3--|------3-3-3-3--|------3-3-3-3--|------3-3-3-3--||
B||------3-3-3-3--|------3-3-3-3--|------3-3-3-3--|------3-3-3-3--||
G||------0-0-0-0--|------0-0-0-0--|------0-0-0-0--|------0-0-0-0--||
D||---------------|---------------|---------------|---------------||
A||--1/3----------|--3-2----------|--2-0----------|--0-0----------||
E||---------------|---------------|---------------|---------------||

Verse 2

You cried, I died
I should have shut my mouth, things headed south
As the words slippd off myt tounge they sounded dump
If this old heart could talk, It'd say you are the one

e||----------3-----|------3-3-3-3--|------3---3----|------3-3-3-3--||
B||--------3-3-3---|------3-3-3-3--|------3---3----|------3-3-3-3--||
G||------0-----0-0-|------0-0-0-0--|--------0---0--|------0-0-0-0--||
D||----------------|---------------|---------------|---------------||
A||----------------|---------------|---------------|--3-2----------||
E||--1/3-----------|--3-2----------|--2-0----------|---------------||

e||---------------|---------------|---------------|------3-3-3-3--||
B||---------------|---------------|---------------|------3-3-3-3--||
G||----5.....-----|--4.....-------|---2.....------|------0-0-0-0--||
D||-----LET RING--|----LET RING---|-----LET RING--|---------------||
A||--1/3.....-----|--2.....-------|---0.....------|--0-0----------||
E||---------------|---------------|---------------|---------------||

Pre-chorus
Wasted time when i think about it
e||--0--0-3-3-3--0-0--|-------------||
B||--1--1-1-1-1--1-1--|-------------||
G||--2--2-2-2-2--2-2--|--4-4--5...--||
D||--2--2-2-2-2--2-2--|-------------||
A||--0--0-0-0-0--0-0--|--2-2--3...--||
E||-------------------|-------------||

Chorus
E5   C                        G
I       should have drove all night
                       D5/A
I would've ran all the lights
               E5
I was misunderstood
   C                  G
I     stumble like my words
               D5/A
Did the best i could
C             G
Damn misunderstood 

Verse 3
Could I, Should I 
Apologize for sleeping on the couch that night
Staying out too late with all my friends
you found me passed out in the yard againg

e||------3-3-3-3--|------3-3-3-3--|------3-3-3-3--|------3-3-3-3--||
B||------3-3-3-3--|------3-3-3-3--|------3-3-3-3--|------3-3-3-3--||
G||------0-0-0-0--|------0-0-0-0--|------0-0-0-0--|------0-0-0-0--||
D||---------------|---------------|---------------|---------------||
A||---------------|---------------|---------------|--3-2----------||
E||--1/3----------|--3-2----------|--2-0----------|---------------||

e||----------3-----|------3-3-3-3--|------3---3----|------3-3-3-3--||
B||--------3-3-3---|------3-3-3-3--|------3---3----|------3-3-3-3--||
G||------0-----0-0-|------0-0-0-0--|--------0---0--|------0-0-0-0--||
D||----------------|---------------|---------------|---------------||
A||--1/3-----------|--3-2----------|--2-0----------|--0-0----------||
E||----------------|---------------|---------------|---------------||


Verse 4
You cried, I tried
To stretch the truth, but i didnt lie
e||---------------|---------------|---------------|------3-3-3-3--||
B||---------------|---------------|---------------|------3-3-3-3--||
G||----5.....-----|--4.....-------|---2.....------|------0-0-0-0--||
D||-----LET RING--|----LET RING---|-----LET RING--|---------------||
A||--1/3.....-----|--2.....-------|---0.....------|--0-0----------||
E||---------------|---------------|---------------|---------------||

Pre-chorus
It´s not so bad when you think about it
e||--0--0-3-3-3--0-0--|-------------||
B||--1--1-1-1-1--1-1--|-------------||
G||--2--2-2-2-2--2-2--|--4-4--5...--||
D||--2--2-2-2-2--2-2--|-------------||
A||--0--0-0-0-0--0-0--|--2-2--3...--||
E||-------------------|-------------||

Chorus
E5   C                        G
I       should have drove all night
                       D5/A
I would've ran all the lights
               E5
I was misunderstood
   C                  G
I     stumble like my words
               D5/A
Did the best i could
C             G    A5         C5
Damn misunderstood intentions good

Solo (couldnt do much about this)

e||-----------------------------------|-------------------------------------||
B||-----------------------------------|-------------------------------------||
G||-----------------------------------|-------------------------------------||
D||-----------------------------------|-------------------------------------||
A||------0-2-0------------------------|-------------------------------------||
E||--1/3------------------------------|-------------------------------------||
Suggest correction
comments
print report bad tab
guest
You may want to rate the tab now too:
select rating
Wanna post a correction for this tab? Suggest correction