Oops, an error
Loading. Please wait.

No Apologies Tab

version 1
version 1

Solo

Interactive

8,532 views 1 this week
no commentswrite comment
1 2 3 4 5
accurate
x 4
add to favorites
launch autoscroll
font size
0
reset
how to read this tab
guitar tuner
Autoscroll
slow
fast
+/-
esc
set tempo
stop
Help us to improve Ultimate-Guitar.com Take our survey!
×
Author
Difficulty
novice
This is how i belive the solo is played (well pretty close to) no apologies by Bon Jovi...

Key:
X-Palm mute
b-bend
b1/2-bend semitone
rb-re-bend


E|--------------------------------------------------------------------------|
B|--------------------------------------------------------------------------|
G|-8vv--8-10-12-13---13-13-12-10-8--s12-8-8--12---10-7b1/2rb vvvv-----------|
D|----------------------------------------------13--------------------------|
A|--------------------------------------------------------------------------|
E|--------------------------------------------------------------------------|

E|---------------------------------------------------------------------------|
B|-------------11-------------------13------------------15----------------16-|
G|--x8x---x10x-------x10x------x12x-------x12x-----x14x-----x13x------x15x---|
D|-----x8x----------------x10x-----------------x12x--------------x13x--------|
A|---------------------------------------------------------------------------|
E|---------------------------------------------------------------------------|

E|--------------------------------------------------------------------------|
B|--16-15-13--15-13------13-------------------------------------------------|
G|----------15------15-13--15-13-12-15-13-12-------5--7--8--s15vv-----------|
D|-------------------------------------------15vv---------------------------|
A|--------------------------------------------------------------------------|
E|--------------------------------------------------------------------------|
Suggest correction
comments
print report bad tab
guest
You may want to rate the tab now too:
select rating
Wanna post a correction for this tab? Suggest correction