Oops, an error
Loading. Please wait.

Raise Your Hands Tab

version 1
version 1

Whole song

Interactive

26,821 views 24 this week
2 commentsread comments
1 2 3 4 5
x 7
add to favorites
launch autoscroll
font size
0
reset
how to read this tab
guitar tuner
backing track
0:00
0:00
Autoscroll
slow
fast
+/-
esc
set tempo
stop
standard tune

[Intro]
e|--------------------------------------}
B|--------------------------------------}
G|--------------------------------------}3x
D|------7------7------7------5------4~~-}
A|-0000---0000---0000---0000---0000-----}
E|--------------------------------------}

e|---5*-----------------12*------------------3-0-----------------------------|
B|-----5*----7*-------------12*-----7*-------3-3-(2)-------------------------|
G|-5*-----7*----7*--12*----------7*----7*(w)-0-2-(2)-------------------------|
D|-------------------------------------------0-0-(2)-----7-----7-----7-----5-|
A|-------------------------------------------2---(0)-0000--0000--0000--0000--|
E|-------------------------------------------3-------------------------------|

e|-----------------------------3-0-------------------------------------------|
B|-----------------------------3-3-------------------------------------------|
G|-----------------------------0-2-------------------------------------------|
D|------4~~------7------7-7*~~-0-0-----7-----7-----7-----5-----4~~-----7-----|
A|-0000-----0000---0000--------2---0000--0000--0000--0000--0000----0000------|
E|-----------------------------3---------------------------------------------|

e|-------------3-0-----------------------------------------------------------|
B|-------------3-3-(2)-------------------------------------------------------|
G|-------------0-2-(2)-------------------------------------------------------|
D|------7-7*~~-0-0-(2)-----7-----7-----7-----5-----4~~-----7-----7-----7~~---|
A|-0000--------2---(0)-0000--0000--0000--0000--0000----0000--0000--0000------|
E|-------------3-------------------------------------------------------------|

e|-3-0----------------------------------------------------3-0---------------|
B|-3-3----------------------------------------------------3-3---------------|
G|-0-2----------------------------------------------------0-2------7----7---|
D|-0-0------7-----7----7-----5-----4~~------7------7-7*~~-0-0-0000--0000----|
A|-2---0000--0000--0000--0000--0000----0000---0000--------2-----------------|
E|-3------------------------------------------------------3-----------------|

e|------------------------------------------3-0-----------------------------|
B|------------------------------------------3-3-----------------------------|
G|-----7-----5-----4~~-----7-----7-----7(w)-0-2-----------------------------|
D|-0000--0000--0000----0000--0000--0000-----0-0-----7-----7-----7-----5-----|
A|------------------------------------------2---0000--0000--0000--0000------|
E|------------------------------------------3-------------------------------|

e|---------------------------------------0---------0--3---0-------------------|
B|---------------------------------------3---------3--3---3-------------------|
G|---------------------------------------2---------2--0---2-------------------|
D|-----4~~-----7-----7-----7*~~-\-0-0-0--0--0-0-0--0--0---0-----7------7----7-|
A|-0000----0000--0000--0000-----\-2-2-2-----2-2-2-----2---2-0000--0000--0000--|
E|------------------------------\-3-3-3-----3-3-3-----3---3-------------------|

e|-----------------0--------0-3-0-----------------------3-0------------------|
B|-----------------3--------3-3-3-(2)-------------------3-3-(2)--------------|
G|-----------------2--------2-0-2-(2)-------------------0-2-(2)--------------|
D|-----7*~~-0-0-0--0--0-0-0-0-0-0-(2)-----7-----7-----7-0-0-(2)-----7------7-|
A|-0000-----2-2-2-----2-2-2---2---(0)-0000--0000--0000--2---(0)-0000--0000---|
E|----------3-3-3-----3-3-3---3-------------------------3--------------------|

e|-------3-0-----------------------------3-0-------------------------3-0----|
B|-------3-3-(2)-------------------------3-3-(2)---------------------3-3----|
G|-------0-2-(2)-------------------------0-2-(2)-----7-----7-----7~~-0-2----|
D|-----7-0-0-(2)-----7-----7-----7*~~----0-0-(2)-0000--0000--0000----0-0----|
A|-0000--2---(0)-0000--0000--0000--------2---(0)---------------------2------|
E|-------3-------------------------------3---------------------------3------|

e|--------------------3-0-3-0-------------------------------------------------|
B|--------------------3-3-3-3-(2)---------------------------------------------|
G|--------------------0-2-0-2-(2)-----7-----7-----7-----5-----4~~-----7-----7-|
D|-----7-----7-7*~~---0-0-0-0-(2)-0000--0000--0000--0000--0000----0000--0000--|
A|-0000--0000---------2---2---(0)---------------------------------------------|
E|--------------------3---3---------------------------------------------------|

e|-----------3-0-------------------------------------------------------------|
B|-----------3-3-------------------------------------------------------------|
G|-----------0-2-------------------------------------------------------------|
D|------7*~~-0-0------7------7------7------5------4~~------7------7-7*~~-7---|
A|-0000------2---0000---0000---0000---0000---0000-----0000---0000--------5-7-|
E|-----------3-------------------------------------------------------------5-|

e|-----------------------------------------------------3-0---------------|
B|-----------------------------------------------------3-3---------------|
G|-----------------------------------------------------0-2-----7-----7---|
D|-----7-----7-----7-----5-----4~~-----7-----7-----7~~-0-0-0000--0000----|
A|-0000--0000--0000--0000--0000----0000--0000--0000----2-----------------|
E|-----------------------------------------------------3-----------------|

e|----------------------------------------3-0------------------------------|
B|----------------------------------------3-3-(2)--------------------------|
G|-----7-----5-----4~~-----7-----7---7(w)-0-2-(2)--------------------------|
D|-0000--0000--0000----0000--0000--00-----0-0-(2)-----7-----7-----7-----5--|
A|----------------------------------------2---(0)-0000--0000--0000--0000---|
E|----------------------------------------3--------------------------------|

e|--------------------------------0---------0-3--0----------------------------|
B|--------------------------------3---------3-3--3-(2)------------------------|
G|--------------------------------2---------2-0--2-(2)------------------------|
D|-----4~~----7-----7-7*~~-0-0-0--0--0-0-0--0-0--0-(2)------7----7-----7-7*~~-|
A|-0000---0000--0000-------2-2-2-----2-2-2----2----(0)-0000--0000--0000-------|
E|-------------------------3-3-3-----3-3-3----3-------------------------------|

e|--------0---------0-3-0-----------------------3-0-----------------------3-0-|
B|--------3---------3-3-3-(2)-------------------3-3-(2)-------------------3-3-|
G|--------2---------2-0-2-(2)-------------------0-2-(2)-------------------0-2-|
D|-0-0-0--0--0-0-0--0-0-0-(2)-----7-----7-----7-0-0-(2)-----7-----7-----7-0-0-|
A|-2-2-2-----2-2-2----2---(0)-0000--0000--0000--2---(0)-0000--0000--0000--2---|
E|-3-3-3-----3-3-3----3-------------------------3-------------------------3---|

e|----------------------3-0-----------------------3-0------------------------|
B|----------------------3-3-(2)-------------------3-3-(2)--------------------|
G|----------------------0-2-(2)-----7-----7-----7-0-2-(2)--------------------|
D|------7----7-----7*~~-0-0-(2)-0000--0000--0000--0-0-(2)-----7-----7---7*~~-|
A|-0000--0000--0000-----2---(0)-------------------2---(0)-0000--0000--00-----|
E|----------------------3-------------------------3--------------------------|

e|-3-0-3-0-------------------------------------3-0-3-0------------------------|
B|-3-3-3-3-(2)---------------------------------3-3-3-3-(2)--------------------|
G|-0-2-0-2-(2)---------------------------------0-2-0-2-(2)--------------------|
D|-0-0-0-0-(2)-----7-----7-----7-----5-----4*~-0-0-0-0-(2)-----7-----7------7-|
A|-2---2---(0)-0000--0000--0000--0000--0000----2---2---(0)-0000--0000--0000---|
E|-3---3---------------------------------------3---3--------------------------|

e|-----------------------------------------|
B|-----------------------------------------|
G|------------------------------------7(w)-|
D|------5------4~~------7------7-----------|
A|-0000---0000-----0000---0000---0000------|
E|-----------------------------------------|

[Solo]
e|---------------------------------------------------------------------------|
B|---------------------------------------------------------------------------|
G|---------------0(w)-0(w)-0(w---------------7-5-7-6--------------7-5-7-6----|
D|----------4(w)----------------7-5-7-4-3-5-3--------7-5-7-4-3-5-3-----------|
A|-------2*------------------------------------------------------------------|
E|-1*-3*---------------------------------------------------------------------|

e|------------------7n*--------9n*-------------------------------------------|
B|----------------------7n*--------9n*-8n*-----------------------------------|
G|---------------7n*--------9n*---------------------------------19-17-19-18--|
D|----------4(w)----------------------------19-17-19-16-15-17-15-------------|
A|-------2*------------------------------------------------------------------|
E|-1*-3*---------------------------------------------------------------------|

                                  {   3x    }
e|------------------------------------------------20^~-17h20r17--------------|
B|-------------------------------------------------------------20^~17h20r17--|
G|---------------------19-17-19-18----------3-5*~~---------------------------|
D|-19-17-19-16-15-17-15----------------3-555---------------------------------|
A|---------------------------------3-5---------------------------------------|
E|---------------------------------------------------------------------------|

                                         not shore on this part sounds good though
e|--------------------------------|-------------------------------------------|
B|--------------------------------|-------------------------------------------|
G|-20^~-17h20r17------------------|-------------------17-19~-----------17-19~-|
D|--------------20^~-17h20r17-----|-------------171819------------171819------|
A|---------------------------20^~~|-------171819------------171819------------|
E|--------------------------------|-171819------------------------------------|

e|12*--19*-----------------------------------5*-------------12*---------------|
B|----------------------------------------------5*---7*--------12*---7*-------|
G|-----------------------------------------5*------7*--7*-12*------7*--7*(w)--|
D|--------------7-----7-----7-----5-----4~~-----------------------------------|
A|----------0000--0000--0000--0000--0000--------------------------------------|
E|----------------------------------------------------------------------------|

e|-3-0-------------------3-0---------------------3-0--------------------3-0-|
B|-3-3-------------------3-3---------------------3-3--------------------3-3-|
G|-0-2-------------------0-2----------------7*~~-0-2-----7------7-----7-0-2-|
D|-0-0-----7-----7-----7-0-0----7-----7----------0-0-0000--0000--0000---0-0-|
A|-2---0000--0000--0000--2--0000--0000--0000-----2----------------------2---|
E|-3---------------------3-----------------------3----------------------3---|

e|------------------------3--0---3-0------------------3-0--------------------|
B|------------------------3--3---3-3------------------3-3--------------------|
G|-----------------7*~~-\-0--2---0-2-------------7*~~-0-2--------------------|
D|-----7-----7----------\-0--0---0-0-----7-----7------0-0-----7-----7-----7--|
A|-0000--0000--0000-----\-2------2---0000--0000-------2---0000--0000--0000---|
E|------------------------3------3--------------------3----------------------|

e|--------------------------------------3-0---||
B|--------------------------------------3-3-2-||
G|---------------------------------7*~~-0-2-2-||
D|------5------4~~------7------7--------0-0-2-||
A|-0000---0000-----0000---0000---0------2---0-||
E|--------------------------------------3-----||

******************

^   bend up
*   harmonic
\   slide down
(w) wammy bar
(#) ghost note

******************
Suggest correction
comments
print report bad tab
2 comments total.
0 reply
leadguitarist04 121 Dec 25, 2004 07:00 PM

cf

0 reply
Youth Gone Wild 10 Apr 19, 2009 02:47 AM

Nice. but in the main riff its 4 trill 5 not vibrato.

guest
You may want to rate the tab now too:
select rating
Wanna post a correction for this tab? Suggest correction